» » »

Your Life And Mine Tabs (ver.2)

Artists:  A B C D E F G H I J K L M N O P Q R S T U V W X Y Z # 

Your Life And Mine Tabs (ver.2)

Just Surrender
Rating:
5/5 (2 votes)

Hard to play? Try these video lessons and learn fast.
                -------------------------------------------------------------------------------
                          YOUR LIFE AND MINE - Just Surrender
-------------------------------------------------------------------------------

Tuning:Eb-Ab-Db-Gb-Bb-Eb

Verse
Guitar 1
e|-----3---------3-------3-------3---------3-------3---|
B|---1---------1---1---1---1---1---------1---1---1---1-|
G|-----------0-------2---------------------------------|
D|-3-------------------------3-------------------------|
A|-------------------------------------2-------3-------|
E|-----------------------------------------------------|

Guitar 2 [enters at 'realized i was passing through']
e|---------------------------------|
B|---------------------------------|
G|---------------------------------|
D|-3-3-3-3-3-3-3-3-5-5-5-5-7-7-7-7-|
A|-3-3-3-3-3-3-3-3-5-5-5-5-7-7-7-7-|
E|-1-1-1-1-1-1-1-1-3-3-3-3-5-5-5-5-|
PM . . . . . . . . . . . . . . . . 

chorus
Guitar 1
e|--------------------------------------------------------------|
B|--------------------------------------------------------------|
G|-5/7-12-9--5/7\5-9\7-5-5/7-12-9--7-12-9-5/7-12-9--5/7\5-9\7-5-|
D|--------------------------------------------------------------|
A|-3/5-10-7--3/5\3-7\5-3-3/5-10-7--5-10-7-3/5-10-7--3/5\5-7\5-3-|
E|--------------------------------------------------------------|

e|--------------|
B|--------------|
G|-5-7-9-7------|
D|---------7/10-|
A|-3-5-7-5------|
E|---------5/8--|

Guitar 2
e|--------------------------------------------------------------------|
B|--------------------------------------------------------------------|
G|------------------------------------------------------------------5-|
D|-33333333-5555-7777-33333333-5555-7777-33333333-5555-7777-3---5---5-|
A|-33333333-5555-7777-33333333-5555-7777-33333333-5555-7777-3---5---3-|
E|-11111111-3333-5555-11111111-3333-5555-11111111-3333-5555-1---3-----|

play verse again [guitar two comes in right away]

chorus

bridge
Guitar 1 [figure out how many times]
e|-----------|
B|-----5-----|
G|---5---4-5-|
D|-3---------|
A|-----------|
E|-----------|

ends with...

e|-333333333--------|
B|-555555555--------|
G|-555555555-[hold]-|
D|-333333333--------|
A|------------------|
E|------------------|

Guitar 2
e|----------------------------------------------------------------|
B|----------------------------------------------------------------|
G|----------------------------------------------------------------|
D|-77777777-55555555-77777777-55555555-77777777-55555555-3--------|
A|-77777777-55555555-77777777-55555555-77777777-55555555-3-[hold]-|
E|-55555555-33333333-55555555-33333333-55555555-33333333-1--------|

guitar one plays verse [guitar 2 doesn't play this time]

chorus [both guitars
then the last chorus guitar 2 plays the chorus part 
while guitar 1 plays the bridge part
and thats it!!!

| /  slide up
| \  slide down
| h  hammer-on
| p  pull-off
| ~  vibrato
| +  harmonic
| x  Mute note
===============================================================================
            
Hard to play? Try these video lessons and learn fast. | Correct




comments powered by Disqus
↑ Back to top | Tablatures and chords are parodies/interpretations of the original songs. You may use it for private study, scholarship, research or language learning purposes only