>
 >
Your Life And Mine

Your Life And Mine Guitar Tabs

Just Surrender - Your Life And Mine chords, tabs, tablatures, lyrics

Guitar lessons | Add/correct | Request | Top 50 tabs Artists:  A B C D E F G H I J K L M N O P Q R S T U V W X Y Z 0-9

Your Life And Mine Guitar Tabs – Just Surrender

CD, Sheet music, Poster

Do you like Your Life And Mine? Share with your friends now
ChordsTabsTabs v2Ukulele
---------------------------------------------------------------------------
---------------------------------------------------------------------------
Tuning: D A D G B E




Verse 1
Lead Guitar
e|-----2---------2-------2-------2---------2-------2------------|
B|---0---------0------0---0---0---0---------0---0---0---0-------|
G|-------------------1------------------------------------------|
D|-2---------4----------------2---------------------------------|
A|-------------------------------------1-------2----------------|
D|--------------------------------------------------------------|

Rhythm Guitar (starts at 'realized i was passing through')
e|---------------------------------|
B|---------------------------------|
G|---------------------------------|
D|-2-2-2-2-2-2-2-2-4-4-4-4-6-6-6-6-|
A|-2-2-2-2-2-2-2-2-4-4-4-4-6-6-6-6-|
D|-2-2-2-2-2-2-2-2-4-4-4-4-6-6-6-6-|
PM . . . . . . . . . . . . . . . . 





Chorus
Lead Guitar
e|----------------------------------------------------------------|
B|----------------------------------------------------------------|
G|-4/6-11-8--4/6\4-8\6-4-4/6-11-8--6-11-8-4/6-11-8--4/6\4-8\6-4---|
D|----------------------------------------------------------------|
A|-2/4-19-6--2/4\2-6\4-2-2/4--9--6--4--9--6-2/4--9-6--2/4\2-6\4-2-|
D|----------------------------------------------------------------|

e|-------------------|
B|-------------------|
G|-4-6-8-6-----------|
D|--------------8/9--|
A|-2-4-6-4----8/9----|
D|--------------8/9--|

Rhythm Guitar
e|--------------------------------------------------------------------|
B|--------------------------------------------------------------------|
G|------------------------------------------------------------------4-|
D|-22222222-4444-6666-22222222-4444-6666-22222222-4444-6666-2---4---4-|
A|-22222222-4444-6666-22222222-4444-6666-22222222-4444-6666-2---4---2-|
D|-22222222-4444-6666-22222222-4444-6666-22222222-4444-6666-2---4-----|





Verse 2
Lead Guitar
e|-----2---------2-------2-------2---------2-------2------------|
B|---0---------0------0---0---0---0---------0---0---0---0-------|
G|-------------------1------------------------------------------|
D|-2---------4----------------2---------------------------------|
A|-------------------------------------1-------2----------------|
D|--------------------------------------------------------------|

Rhythm Guitar (starts at 'realized i was passing through')
e|---------------------------------|
B|---------------------------------|
G|---------------------------------|
D|-2-2-2-2-2-2-2-2-4-4-4-4-6-6-6-6-|
A|-2-2-2-2-2-2-2-2-4-4-4-4-6-6-6-6-|
D|-2-2-2-2-2-2-2-2-4-4-4-4-6-6-6-6-|
PM . . . . . . . . . . . . . . . . 





Chorus
Lead Guitar
e|----------------------------------------------------------------|
B|----------------------------------------------------------------|
G|-4/6-11-8--4/6\4-8\6-4-4/6-11-8--6-11-8-4/6-11-8--4/6\4-8\6-4---|
D|----------------------------------------------------------------|
A|-2/4-19-6--2/4\2-6\4-2-2/4--9--6--4--9--6-2/4--9-6--2/4\2-6\4-2-|
D|----------------------------------------------------------------|

e|-------------------|
B|-------------------|
G|-4-6-8-6-----------|
D|--------------8/9--|
A|-2-4-6-4----8/9----|
D|--------------8/9--|

Rhythm Guitar
e|--------------------------------------------------------------------|
B|--------------------------------------------------------------------|
G|------------------------------------------------------------------4-|
D|-22222222-4444-6666-22222222-4444-6666-22222222-4444-6666-2---4---4-|
A|-22222222-4444-6666-22222222-4444-6666-22222222-4444-6666-2---4---2-|
D|-22222222-4444-6666-22222222-4444-6666-22222222-4444-6666-2---4-----|





Bridge
Lead(figure out how many times)
e|-----------|
B|-----4-----|
G|---4---3-4-|
D|-2---------|
A|-----------|
D|-----------|

ends with...

e|-22222222~---------|
B|-44444444~---------|
G|-44444444~---------|
D|-22222222~---------|
A|-------------------|
D|-------------------|

Guitar 2
e|-----------------------------------------------------------------|
B|-----------------------------------------------------------------|
G|-----------------------------------------------------------------|
D|-66666666-44444444-66666666-44444444-66666666-44444444--2~-------|
A|-66666666-44444444-66666666-44444444-66666666-44444444--2~-------|
D|-66666666-44444444-66666666-44444444-66666666-44444444--2~-------|

then
Lead Guitar
e|-----2---------2-------2-------2---------2-------2------------|
B|---0---------0------0---0---0---0---------0---0---0---0-------|
G|-------------------1------------------------------------------|
D|-2---------4----------------2---------------------------------|
A|-------------------------------------1-------2----------------|
D|--------------------------------------------------------------|

e|---------------------------------|
B|---------------------------------|
G|---------------------------------|
D|-2-2-2-2-2-2-2-2-4-4-4-4-6-6-6-6-|
A|-2-2-2-2-2-2-2-2-4-4-4-4-6-6-6-6-|
D|-2-2-2-2-2-2-2-2-4-4-4-4-6-6-6-6-|
PM . . . . . . . . . . . . . . . . 





Chorus
Lead Guitar
e|----------------------------------------------------------------|
B|----------------------------------------------------------------|
G|-4/6-11-8--4/6\4-8\6-4-4/6-11-8--6-11-8-4/6-11-8--4/6\4-8\6-4---|
D|----------------------------------------------------------------|
A|-2/4-19-6--2/4\2-6\4-2-2/4--9--6--4--9--6-2/4--9-6--2/4\2-6\4-2-|
D|----------------------------------------------------------------|

e|-------------------|
B|-------------------|
G|-4-6-8-6-----------|
D|--------------8/9--|
A|-2-4-6-4----8/9----|
D|--------------8/9--|

Rhythm Guitar
e|--------------------------------------------------------------------|
B|--------------------------------------------------------------------|
G|------------------------------------------------------------------4-|
D|-22222222-4444-6666-22222222-4444-6666-22222222-4444-6666-2---4---4-|
A|-22222222-4444-6666-22222222-4444-6666-22222222-4444-6666-2---4---2-|
D|-22222222-4444-6666-22222222-4444-6666-22222222-4444-6666-2---4-----|


then during the final chorus
the lead guitar plays this
e|-----------|
B|-----4-----|
G|---4---3-4-|
D|-2---------|
A|-----------|
D|-----------|



end on
e|-----------|
B|----4~------|
G|----4~------|
D|----2~------|
A|-----------|
D|-----------|






| /  slide up
| \  slide down
| h  hammer-on
| p  pull-off
| ~  vibrato
| +  harmonic
| x  Mute note
==========================================================================





Comments


Popular Just Surrender tabs & chords
Don't Forget Chords
I Can Barely Breathe 1 Chords
Lose Control Chords
Something That I'm Not Chords
Crazy Tabs
Of All We've Known Tabs
Take Me Home Tabs
Tell Me Everything 2 Tabs
I Said It Before Ukulele
Our Work Of Art Ukulele


Song lyrics



↑ Back to top | Tablatures and chords are parodies/interpretations of the original songs. You may use it for private study, scholarship, research or language learning purposes only
© 2014 AZChords.com Contact us | Privacy policy | DMCA | Add/correct tabs | Request tabs | Top 50 tabs