» » »

Just Surrender, Tell Me Everything Tabs (ver.1)

Artists:  A B C D E F G H I J K L M N O P Q R S T U V W X Y Z # 

Tell Me Everything Tabs (ver.1)

Just Surrender Tabs
 Rating:
4/5 (6 votes)
Tell Me Everything lessons Tabs too difficult? Try these video lessons and learn fast
1
                intro-no dist.

E|-------------------------------------------------------------------------|
B|------0------------------------------------------------------------------|
G|----2--------------------------------------------------------------------|
D|---2-2-2-----------------------------------------------------------------|
A|--0----------------------------------------------------------------------|
D|-------------------------------------------------------------------------|

"just one more hour...."
verse-dist.
E|----------------------------------------------------------|
B|----------------------------------------------------------|
G|----------------------------------------------------------|
D|-7-(x15)h9--11-(x15)---(x2)--11-(x10)---------------------|
A|-7------h9--11---------------11---------------------------|
D|-7------h9--11---------------11---------------------------|
                               ..
"tell me everything will be..."
chorus guitar 1 & 2  (with rythm )
E|----------------------------------------------------------|
B|----------------------------------------------------------|
G|----------------------------------------------------------|
D|-77--77--99--99--1111--1111-1111----(x3)------------------|
A|-77--77--99--99--1111--1111-1111--------------------------|
D|-77--77--99--99--1111--1111-1111--------------------------|
       .       .          .    .

"cross my heart and hope to die..."
Chorus
part two , guitar 1 & 2 (with rythm)    
E|----------------------------------------------------------|
B|----------------------------------------------------------|
G|----------------------------------------------------------|
D|-7~---9~------22--22--------------------------------------| 
A|-7~---9~------22--22--------------------------------------|    
D|-7~---9~------22--22--------------------------------------|
                    .
"i'll let the lack of words speak for me..."
Post
E|----------------------------------------------------------|
B|----------------------------------------------------------|
G|----------------------------------------------------------|
D|--11~-----7~---7h9----------------------------------------|
A|--11~-----7~---7h9----------------------------------------|
D|--11~-----7~---7h9----------------------------------------|

"i'll take the time now to make you see..."
verse guitar 1 
E|----------------------------------------------------------|
B|----------------------------------------------------------|
G|------7--(x15)--------------------------------------------|
D|-----7-----------77777------------------------------------|
A|----5------------77777------------------------------------|
D|-----------------77777------------------------------------|
      .            .....  
verse guitar 2 
E|----------------------------------------------------------|
B|----------------------------------------------------------|
G|----------------------------------------------------------|
D|-7-(x15)-9-(x10)--77777-----------------------------------|
A|-7-------9--------77777-----------------------------------|
D|-7-------9--------77777-----------------------------------|
                    .....

chorus part 1


chorus part 2 
E|----------------------------------------------------------|
B|----------------------------------------------------------|
G|----------------------------------------------------------|
D|-7~--9~---2-2--22-(x3)------------------------------------|
A|-7~--9~---2-2--22-----------------------------------------|
D|-7~--9~---2-2--22-----------------------------------------|
                 .

2nd post-               "i see right through your lies...."
E|----0-0---0-0-----0---------------------------------------|
B|-----0-----0--------0-------------------------------------|
G|-----------------------(10)-(10)-(10)---------------------|
D|--11----9-----7-------7---9---11--------------------------|
A|--11----9-----7-------7---9---11--------------------------|
D|--11----9-----7-------7---9---11--------------------------|
                        .   .   .

chorus part 1 (x3)

ending
E|----------------------------------------------------------|
B|----------------------------------------------------------|
G|----------------------------------------------------------|
D|---7~----9~------2~---------------------------------------|
A|---7~----9~------2~---------------------------------------|
D|---7~----9~------2~---------------------------------------|
            
Submit corrections

comments powered by Disqus
↑ Back to top | Just Surrender Tabs for Tell Me Everything. Lyrics for acoustic guitar and electric guitar. 1 Tablatures and chords are parodies/interpretations of the original songs. You may use it for private study, scholarship, research or language learning purposes only