» » »

Tell Me Everything Tabs (ver.3)

Artists:  A B C D E F G H I J K L M N O P Q R S T U V W X Y Z # 

Tell Me Everything Tabs (ver.3)

Just Surrender
Rating:
0/5 (0 votes)

Hard to play? Try these video lessons and learn fast.
                Just Surrender
Tell Me Everything

Hi everyone, this is an awesome song by a band from my hometown. This is mostly for just
a rhythm guitarist. This isn’t really the genre I like to play so I apologize to all
pop-punk people if you find mistakes.

INTRO (0:02): X2

E--------0-----------0---------0--------0------------|
A-----4---4------4---4----4---4----4---4-------------|
D---5-----------5---------5--------5-----------------|
G----------------------------------------------------|
B----------------------------------------------------|
D----------------------------------------------------|
…..This is also played by another guitar during the verse

Verse(0:08):
E-----------------------------------------------------------------------------------|
A-----------------------------------------------------------------------------------|
D-----------------------------------------------------------------------------------|
G---------------5555555555555555--h7/---9999999999999999----------------------------|
B---------------5555555555555555--h7/---9999999999999999----------------------------|
D---------------5555555555555555--h7/---9999999999999999----------------------------|
Just 1 more hr…………………...all the wrong feelings…..
    V2 Me So white out the…… with your  hurtful..…
E------------------------------------------------------|
A------------------------------------------------------|
D-------7777777777777777-------------------------------|
G-------7777777777777777----777p6—-7p6-----------------|
B-------5555555555555555---------7-----7---------------|
D------------------------------------------------------|
 (0:26)  and biting memories

The play the verse again

Then here’s the chorus (0:52):
E----------------------------------------------------------------------|
A----------------------------------------------------------------------|
D----------------------------------------------------------------------|
G------------------5-555--7-777----999-999---999-999-------------------|
B------------------5-555--7-777----999-999---999-999-------------------|
D------------------5-555--7-777----999-999---999-999-------------------|
Tell me everything will   be       alright
Close your eyes..dream of me tonight
Tell me that you wont    fade       away
Chrous continued (1:05):
E--------------------------------------------------------------------------------------|
A--------------------------------------------------------------------------------------|
D--------------------------------------------------------------------------------------|
G—9-9-9-9-9-9-9-9-9-9-9----5----------------7------------------000-000---000-000-------|
B—9-9-9-9-9-9-9-9-9-9-9----5----------------7------------------000-000---000-000-------|
D—9-9-9-9-9-9-9-9-9-9-9----5----------------7------------------000-000---000-000-------|
Cross my heart and hope to die tonight I’ll dream my pain away

Another verse(1:13):
E---------------------------------------------------------------------------------------|
A---------------------------------------------------------------------------------------|
D---------------------------------------------------------------------------------------|
G-12(hold)-------------------------------5(hold)------5h7--7-6--7-6--7--6--7-6----------|
B-12(hold)-------------------------------5(hold)------5h7-----7-----7----7-----7--------|
D-12(hold)-------------------------------5(hold)------5h7-------------------------------|
    I’ll let the lack of words speak for me…or understand  ..................

(1:31)
E---------------|
A---------------|
D---------------|
G-777777777777--|
B-777777777777--|
D-555555555555--|
   To make you see       Tell me everything……

Instrumental(1:57)
E-----------------------------------------------------------------------------|
A-----------------------------------------------------------------------------|
D-----------------------------------------------------------------------------|
G-5-55--7-77--7--------5-55---7-77--7---5555555555555555555555555555555555555-|
B-5-55--7-77--7--------5-55---7-77--7---5555555555555555555555555555555555555-|
D-5-55--7-77--5--------5-55---7-77--5---5555555555555555555555555555555555555-|
    ..    ..             ..     ..      .....................................
                                         I see through your lies, there
            bleeding out your eyes

Final chorus(2:17) Play 7 times.

On 8th time, play this(2:54):
E---------------------------------------------|
A---------------------------------------------|
D---------------------------------------------|
G---5--------------7---------------12---------|let ring
B---5--------------7---------------12---------|let ring
D---5--------------7---------------12---------|let ring
   …die tonight I dream I fade away

Ok, that’s it, hope it works for you.
            
Hard to play? Try these video lessons and learn fast. | Correct




comments powered by Disqus
↑ Back to top | Tablatures and chords are parodies/interpretations of the original songs. You may use it for private study, scholarship, research or language learning purposes only