» » »

Lovestoned Tabs (ver.3)

Artists:  A B C D E F G H I J K L M N O P Q R S T U V W X Y Z # 

Lovestoned Tabs (ver.3)

Justin Timberlake
Rating:
3/5 (4 votes)

Hard to play? Try these video lessons and learn fast.
                ----------------------------------------------------------------------------
                      LOVE STONED - JUSTIN TIMBERLAKE
----------------------------------------------------------------------------


Tuning: Normal

I was just working out JT's new song, I think ive got it not to sure though, quite a 
rift. Hope its helpful!!

e|------8-----6-----4-----11----11----9---------------------------------|
B|------8-----6-----4-----11----11----9---------------------------------|
G|------10----8-----6-----13----11----9---------------------------------|
D|------10----8-----6-----13----13----11--------------------------------|
A|------8-----6-----4-----11----13----11--------------------------------|
E|------8-----6-----4-----11----11----9---------------------------------|
        x8    x3    x4    x8    x3    x4

The x... is for how many times you strum, just repeat this rift
            
Hard to play? Try these video lessons and learn fast. | Correct




comments powered by Disqus
↑ Back to top | Tablatures and chords are parodies/interpretations of the original songs. You may use it for private study, scholarship, research or language learning purposes only