» » »

Lovestoned Tabs (ver.1)

Artists:  A B C D E F G H I J K L M N O P Q R S T U V W X Y Z # 

Lovestoned Tabs (ver.1)

Justin Timberlake
Rating:
1/5 (1 vote)

Hard to play? Try these video lessons and learn fast.
                
video of me playing and singing it:

Tuning: F  A# D# G# C D#

x = mute
/ = slide
^ = hammer on and pull off

Chords:
Am    Em   Em7     B7   D  D/F#   C     G  G
-2-----2--0--0-----x----0--0--0---0-----0--0-|
-1-----0--0--0-----0----0--3--0---0-----0--3-|
-2-----0--0--0-----2----0--2--9---0-----0--0-|
-2-----2--9--2-----1----7--0--7---5----12--0-|
-0-----2--7--2-----2----5--0--9---3----10--2-|
-------0-----0-------------2---------------3-|

Intro:
-------------------|
-------------------|
-------------------| Play 2x
-----------0--2----|
------0-2----------|
-0--3------------0-|

Verse 1:
----------------------x--x--x-|
----------------------x--x--x-|
-----------0----------x--x--x-| Play 3x
-----------0^2-2-2----x--x--x-|
------0-2-------------x--x--x-|
-0--3--------------0--x--x--x-|

---------------------|
---------------------|
-----------0---------|
-----------0^2-2-2---|
------0-2------------|
-0--3--------------0-|

Pre-Chorus Fill 1 and 2
---------------------|
---------------------|
---------------------|
-5-4-2-4-2-0-2-0---0-|
-----------------2---|
---------------------|

Chorus 1 and 2:
-2---2---2---2---2---2---2---x-|
-1---0---1---0---1---0---1---0-|
-2---0---2---0---2---0---2---2-|
-2---2---2---2---2---2---2---1-|
-0---2---0---2---0---2---0---2-|
-----0-------0-------0---------|

Turnaround: (after 1st chorus)
--------------------------------------------------12-|
--------------------------------------------10/12----|
-----------0-----------------------------------------|
-----------0--2-----------------5-4------------------|
------0-2------------------0-2------5-7--------------|
-0--3------------0----0--3---------------0-----------|

Verse 2:
----------------------x--x---------|
----------------------x--x---------|
-----------0----------x--x-----7^9-|
-----------0^2-2-2----x--x--7^9----|
------0-2-------------x--x---------|
-0--3--------------0--x--x---------|

----------------------x--x------------|
----------------------x--x------------|
-----------0----------x--x--2^4^2-----|
-----------0^2-2-2----x--x—-------5-4-|
------0-2-------------x--x------------|
-0--3--------------0--x--x------------|

----------------------x--x---------|
----------------------x--x---------|
-----------0----------x--x-----7^9-|
-----------0^2-2-2----x--x--7^9----|
------0-2-------------x--x---------|
-0--3--------------0--x--x---------|

---------------------|
---------------------|
-----------0---------|
-----------0^2-2-2---|
------0-2------------|
-0--3--------------0-|

Outro:
-----------------------------------------|
-------------------------------x---------|
-x--------x---x-------x--------9---x-----| Play 4x
-9--------7---5----/-12--------x---9-----|
-7--------5---3----/-10--------9---7-----|
-x--------x---x-------x--------x---x-----|

-0--------0---0-------0--------0---0-----|
-0--------0---0-------0--------0---0-----|
-0--------0---0-------0--------9---0-----| Play 5x
-9--------7---5----/-12--------7---9-----|
-7--------5---3----/-10--------9---7-----|
-----------------------------------------|

-----0-------0-----0-----0----0--0-|
-----0-------0-----0-----3----3--0-|
---0-------0-----0-------0----2--0-|
-9-------9-----7-----5---0----0--2-|
-7-------7-----5-----3---2----0--2-|
-------------------------3----2--0-|
            
Hard to play? Try these video lessons and learn fast. | Correct




comments powered by Disqus
↑ Back to top | Tablatures and chords are parodies/interpretations of the original songs. You may use it for private study, scholarship, research or language learning purposes only