» » »

King Of Yesterday Tabs (ver.2)

Artists:  A B C D E F G H I J K L M N O P Q R S T U V W X Y Z # 

King Of Yesterday Tabs (ver.2)

Jude
Rating:
5/5 (5 votes)

Hard to play? Try these video lessons and learn fast.
                Jude, King of  yesterday.
  

#This file is the author\'s own work and represents their interpretation of the #
#------------------------------------------------------------------------------##
#

artist : Jude
song : King of yesterday
album : King of yesterday


note : there\'s a capo on the 3th fret but it can be played without one (I think Jude plays without a capo but it sounds better with and it\'s easier). This is the version with the capo. E-mail me for the version without capo.

/ : slide
b : bend
r : release bend
h : hammer
p : pull-off

chords : 
D(xx0232)
A7(x02020)
Bmin(x24432)
G(320033)
G/E(020033)
Emin(022000)

INTRO (clean) :
e/------------0-2------------0--------------------------------------------------------------------
b/---3--3--3-----2--2--2-3----------------------------------------------------------------------
g/-----2--2---------2--2--------4---4---------4/2---2-------------2--2--2---------------------
d/-----------------------------------4---4-------4/2---2---0--0 ---2--2--2---------------------
a/-------------------------------------------------------------2--2---0--0--0---------------------
E/------------------------------------------------------------------------------------------------

VERSE 1 (clean) :
e/--2-------0-------2-------3---3         
b/--3-------2-------3-------3---3
g/--2-------0-------4-------0---0
d/--0-------2-------4-------0---0
a/-----------0-------2-------2---2
E/----------------------------3---0
with fill 1 : e/-0h2-0h2-0h2-2h3-2h3 played by another guitar


PRE-CHORUS 1 (clean) :
D-Emin-G x3

VERSE 2 (clean) :
same as verse 1 (but piano enters)

PRE-CHORUS 2 (clean) :
same as pre-chorus 1

CHORUS 1 (distorted) :
D-Emin-G x6

VERSE 3 (clean) :
same as other verses

PRE-CHORUS 3 (clean) :
same as other pre-choruses

CHORUS 2 (distorted) :
D-Emin-G x8
with fill 2 :
e/-13-13-13-13-13/18-17-18-17-18p17-13-13-13-13-13/18-17-18-17-18/20-20b*
*keep bending and strum several times the chord

NB : Sorry for the bad english \'cause I\'m french...

 
            
Hard to play? Try these video lessons and learn fast. | Correct




comments powered by Disqus
↑ Back to top | Tablatures and chords are parodies/interpretations of the original songs. You may use it for private study, scholarship, research or language learning purposes only