>
 >
King Of Yesterday

King Of Yesterday Guitar Tabs

Jude - King Of Yesterday chords, tabs, tablatures, lyrics

Guitar lessons | Add/correct | Request | Top 50 tabs Artists:  A B C D E F G H I J K L M N O P Q R S T U V W X Y Z 0-9

King Of Yesterday Guitar Tabs – Jude

CD, Sheet music, Poster

Do you like King Of Yesterday? Share with your friends now
TabsTabs v2
My first tab for this site, nice song very simple. Obviously a number of places to play
introduction on the guitar this just happens to be where i play it normally. The rest of
is pretty much just chords, which you can find at the bottom. Standard tuning.

((Intro:))
   F                   C                 Dm          Cadd4  Bb       G5
e|------------------------------------------------------------------------|
B|------------------10----------------------------------------------------|
G|-10----10---10/12----9----9----9h10/12----------------------7-7-7-------|
D|----10---10------------10---10---------12----12----12\10--8-8-8-8-------|
A|------------------------------------------12----12--------8-8-8-8-------|
E|------------------------------------------------------------------1/3\--|

((Verse:))
F             C                      Dm
Can you still remember, how it seemed..
Cadd4             Bb         G5        F
We could live forever in a lovers dream.
                C                         Dm
Falling was the best part but now you know..
Cadd4                   Bb              G5           F
The things you cling to your heart, can start to grow.

((Pre Chorus:))
            G           Bb
You, you're walking away...
         F            G            Bb
Ive been there, now i know what to say...
       F       G        Bb
Im the king of yesterday.

((Second verse and prechorus played the same way:))

A Silly little love song for myself...
Its all i ever do you know i shine the shell.
A pretty little picture, the face of you..
You were my setting sun and now you're every view.
You, you're walking away...
Ive been there now i know what to say...
Im the King of yesterday...

((CHORUS: (Repeat twice) + Distortion))
                F5   G5   Bb5
Why dont you stay....         X2
F5
Take a little time
G5
Throw it on the line
Bb5
let me believe that you believe in me
F5
Baby turn around
G5
Look at what i found
Bb5
You are the one that i wanted

((Verse 3 (Played the same way as 1&2))

Someday ill be over, on my own..
Believing all the legends of the loves ive known.
Seeing you in summer the way we were..
When you were seventeen, you know i much prefer..

((Prechorus 3:))

You walking away..
Ive been here, now i know what to say..
Im the king of yesterday..
Why dont you stay.

((Back to Chorus))
((Solo during chorus at the end:))

e|------/18-17-18-17b18-----/18-17-18-17b18-----/18-17-18-17/20-/-|
B|--/18-----------------/18-----------------/18-------------------|
G|----------------------------------------------------------------|
D|----------------------------------------------------------------|
A|----------------------------------------------------------------|
E|----------------------------------------------------------------|

Chords:

F-133211
C-X32010
Dm-XX0231
Cadd4-X32011
Bb-X13331
G5-355XXX
F5-133XXX
B5-688XXX


/ Slide up
\ Slide down
b Bend

HAPPY PLAYING!





Comments


Popular Jude tabs & chords
I Do Chords
I'm Sorry Now Chords
In Between Chords
King Of Yesteday Chords
Let It Out Intro Tabs
One Year One Day Tabs
I Know Ukulele
Im Sorry Now Ukulele
In Between Ukulele
Out Of La Ukulele


Song lyrics



↑ Back to top | Tablatures and chords are parodies/interpretations of the original songs. You may use it for private study, scholarship, research or language learning purposes only
© 2014 AZChords.com Contact us | Privacy policy | DMCA | Add/correct tabs | Request tabs | Top 50 tabs