>
 >
Whos Crying Now 1

Whos Crying Now 1 Chords

Journey - Whos Crying Now 1 chords, tabs, tablatures, lyrics

Guitar lessons | Add/correct | Request | Top 50 tabs Artists:  A B C D E F G H I J K L M N O P Q R S T U V W X Y Z 0-9

Whos Crying Now 1 Chords – Journey

CD, Sheet music, Poster

Do you like Whos Crying Now 1? Share with your friends now
Chords
RATE AND COMMENT

Right, this is an easy one :) I HAVE TWO OF THIS TAB SOMEHOW LOL

I tabbed this out before, but spelled the name wrong lol...

Intro:

Am, F, Dm, Em, Am    (this is the pattern rtepeated through the verses)

Verse:


Am                 F                           Dm
  It's been a mystery and still they try to see
              Em               Am
Why somethin' good can hurt so bad
Am                           F                         Dm
  Caught on a one-way street, the taste of bittersweet
            Em                  Am
Love will survive somehow, some way


chorus:

Am
One love feeds the fire
F
One heart burns desire
Dm         G           Am
I wonder, who's cryin' now


e|---------------------------|
B|--------8------------------| Play this wherever you hear it
G|----5h7---5~~~-------------| its not hard to hear lol.
D|---------------------------|
A|---------------------------|
E|---------------------------|



Am
Two hearts born to run
F
Who'll be the lonely one
Dm         G           Am
I wonder, who's cryin' now


Am                      F                         Dm
  So many stormy nights, so many wrongs or rights
                Em                    Am
Neither could change their headstrong ways
Am                      F                       Dm
  And in a lover's rage, they tore another page
                Em                   Am
The fightin' is worth the love they save...

Am
One love feeds the fire
F
One heart burns desire
Dm         G           Am
I wonder, who's cryin' now
Am
Two hearts born to run
F
Who'll be the lonely one
Dm         G           Am
I wonder, who's cryin' now


(not sure wats here, i think its just keyboards)

Only so many tears you can cry
'Til the heartache is over
And now you can say your love
           Am     F    Dm    Em    Am
Will never die


Am
One love feeds the fire
F
One heart burns desire
Dm         G           Am
I wonder, who's cryin' now
Am
Two hearts born to run
F
Who'll be the lonely one
D          G           Am
I wonder, who's cryin' now


SOLO - not sure about the WHOLE thing but i got the general jist of it.
And listen for the timing, i tabbed it as i figured it out lol

Part A

e|--------15----15----15----15-----------15----15----15----15---|
B|--15b17----15----13----12--------15b17----15----13----12------|
G|--------------------------------------------------------------|
D|--------------------------------------------------------------|
A|--------------------------------------------------------------|
E|--------------------------------------------------------------|

e|--------15----15----15-----------------|
B|--15b17----15----13----12----12~~~~----|
G|--------------------------14-----------|
D|---------------------------------------|
A|---------------------------------------|
E|---------------------------------------|

Part B

e|--------15----15-----15b17-----------15----15----15b17---|
B|--15b17----15----13------------15b17----15----13---------|
G|---------------------------------------------------------|
D|---------------------------------------------------------|
A|---------------------------------------------------------|
E|---------------------------------------------------------|

e|--------15----15----15-----------------|
B|--15b17----15----13----12----12~~~-----|
G|--------------------------14-----------|
D|---------------------------------------|
A|---------------------------------------|
E|---------------------------------------|


Part C 

e|-----------------------------------------------------|
B|-----------------------------------------------------| << means slide
G|--12h14-14~~<---14p12--------------------------------| ~ = vibrato?
D|----------------------12<<10h12-b13r12----10-12~~<<--|
A|---------------------------------------12~-----------|
E|-----------------------------------------------------|

e|-------------------------------------------17---17b19--20*-|
B|-----------------------------15b17-------17--17------------|
G|------12h14-14~-12----12>>14-------17-14-------------------|
D|->>14--------------14--------------------------------------|
A|-----------------------------------------------------------|
E|-----------------------------------------------------------|

e|--15h17-17--15h17b19r-17p15-17b19r17-p15-------|
B|------------------------------------------17~--|
G|-----------------------------------------------|
D|-----------------------------------------------|
A|-----------------------------------------------|
E|-----------------------------------------------|

e|--15h17-17--15h17b20--17p15h17-----------------|
B|-------------------------------17-17~~~<<------|
G|-----------------------------------------------|
D|-----------------------------------------------|
A|-----------------------------------------------|
E|-----------------------------------------------|


Part E

e|-------------------------------------------------------------------|
B|--17p15--17b18r17-->~15--15h17p15----------------------------------|
G|----------------------------------16-14--16b1716----14h16----------|
D|-------------------------------------------------17-------14~~~~---|
A|-------------------------------------------------------------------|
E|-------------------------------------------------------------------|

ENDING

e|--------15----15----15----15---------15----15----15b17r15--p13--|
B|--15b17----15----13----12------15b17----15----13----------------|
G|----------------------------------------------------------------|
D|----------------------------------------------------------------|
A|----------------------------------------------------------------|
E|----------------------------------------------------------------|

and reapeat part A

Any questions or u dont understand it, just message :P lol
Enjoy.





Comments


Popular Journey tabs & chords
Don't Stop Believin' Bass Tabs
Edge Of The Blade Chords
Faithfully 8 Chords
Dont Stop Believing 1 Tabs
Escape Tabs
Me And You Love Tabs
Roses Tabs
Separate Ways Intro Tabs
Signs Of Life 1 Tabs
Live And Breathe Ukulele


Song lyrics



↑ Back to top | Tablatures and chords are parodies/interpretations of the original songs. You may use it for private study, scholarship, research or language learning purposes only
© 2014 AZChords.com Contact us | Privacy policy | DMCA | Add/correct tabs | Request tabs | Top 50 tabs