>
 >
Stay Awhile

Stay Awhile Guitar Tabs

Journey - Stay Awhile chords, tabs, tablatures, lyrics

Guitar lessons | Add/correct | Request | Top 50 tabs Artists:  A B C D E F G H I J K L M N O P Q R S T U V W X Y Z 0-9

Stay Awhile Guitar Tabs – Journey

CD, Sheet music, Poster

Do you like Stay Awhile? Share with your friends now
Bass TabsTabs
-----------------------------------------------------------------------------
                       
-----------------------------------------------------------------------------

Tuning: Standard

=============================================================================

Guitar



     E  E  E  E  E  E  E  E  E  E  E  E   
E||-----------0-----------------0--------|
B||--------3-----3-----------3-----3-----|
G||-----2-----------2-----2-----------2--|
D||--0-----------------------------------|
A||--------------------3-----------------|
E||--------------------------------------|


  E  E  E  E  E  E  E  E  E  E  E  E     E  E  E  E  E  E  E  E  E  E  E  E   
-----------0-----------------0--------|-----------0-----------------0--------|
--------3-----3-----------3-----3-----|--------3-----3-----------3-----3-----|
-----2-----------2-----2-----------2--|-----2-----------2-----2-----------2--|
--------------------------------------|--0-----------------------------------|
--2-----------------1-----------------|--------------------3-----------------|
--------------------------------------|--------------------------------------|


  E  E  E  E  E  E  E  E  E  E  E  E   
-----------0-----------------0--------|
--------3-----3-----------3-----3-----|
-----2-----------2-----2-----------2--|
--------------------------------------|
--2-----------------1-----------------|
--------------------------------------|


  E  E  E    E  E  E  E  E  E    E  E  E     E  E  E  E  E  E  Q.     E  E  E   
-----------3g2-----------------3g2--------|-----------3------------------------|
--------3-------3-----------3-------3-----|--------0-----0---------------------|
-----2-------------2-----2-------------2--|-----0-----------0------------------|
--0-------------------0-------------------|------------------------------------|
------------------------------------------|---------------------------3--2-----|
------------------------------------------|--3-----------------3------------3--|


  E  E  E    E  E  E  E  E  E    E  E  E     E  E  E  E  E  E  Q.     E  E  E   
-----------3g2-----------------3g2--------|-----------3------------------------|
--------3-------3-----------3-------3-----|--------0-----0---------------------|
-----2-------------2-----2-------------2--|-----0-----------0------------------|
--0-------------------0-------------------|------------------------------------|
------------------------------------------|---------------------------3--2-----|
------------------------------------------|--3-----------------3------------3--|


  E  E  E    E  E  E  E  E  E    E  E  E     E  E  E  E  E  E  Q.     E  E  E   
-----------3g2-----------------3g2--------|-----------3------------------------|
--------3-------3-----------3-------3-----|--------0-----0---------------------|
-----2-------------2-----2-------------2--|-----0-----------0------------------|
--0-------------------0-------------------|------------------------------------|
------------------------------------------|------------------------------0--2--|
------------------------------------------|--3-----------------3---------------|


  E  E  E  E  E  E  E  E  E  Q.        E  E  E    E.  S E  H.            
-----------------------------0------|-----------2g3---3-3--2------------|
-----------3--------------0--3------|--------3----3---3-3--3------------|
--------0--------------0------------|-----2----------------2------------|
-----2------------------------------|--0--------------------------------|
--3-----------2--0------------------|-----------------------------------|
--------------------3---------------|-----------------------------------|


  E  E  E    E  E  E  E  E  E    E  E  E     E  E  E  E  E  E  Q.     E  E  E   
-----------3g2-----------------3g2--------|-----------3------------------------|
--------3-------3-----------3-------3-----|--------0-----0---------------------|
-----2-------------2-----2-------------2--|-----0-----------0------------------|
--0-------------------0-------------------|------------------------------------|
------------------------------------------|---------------------------3--2-----|
------------------------------------------|--3-----------------3------------3--|


  E  E  E    E  E  E  E  E  E    E  E  E     E  E  E  E  E  E  Q.     E  E  E   
-----------3g2-----------------3g2--------|-----------3------------------------|
--------3-------3-----------3-------3-----|--------0-----0---------------------|
-----2-------------2-----2-------------2--|-----0-----------0------------------|
--0-------------------0-------------------|------------------------------------|
------------------------------------------|---------------------------3--2-----|
------------------------------------------|--3-----------------3------------3--|


  E  E  E    E  E  E  E  E  E    E  E  E     E  E  E  E  E  E  Q.     E  E  E   
-----------3g2-----------------3g2--------|-----------3------------------------|
--------3-------3-----------3-------3-----|--------0-----0---------------------|
-----2-------------2-----2-------------2--|-----0-----------0------------------|
--0-------------------0-------------------|------------------------------------|
------------------------------------------|------------------------------0--2--|
------------------------------------------|--3-----------------3---------------|


  E  E  E  E  E  E  E  E  E  Q.        E  E  E    E.  S E  H.            
-----------------------------0------|-----------2g3---3-3--2------------|
-----------3--------------0--3------|--------3----3---3-3--3------------|
--------0--------------0------------|-----2----------------2------------|
-----2------------------------------|--0--------------------------------|
--3-----------2--0------------------|-----------------------------------|
--------------------3---------------|-----------------------------------|


  Q.     E  E  E  E  E  E  E  E  E     Q.     E  E  E  E  E  E  E  E  E   
------------------------------------|--3------3--------3--------3--------|
--3------3--------3--------3--------|--0---------0--------0--------0-----|
--0---------0--------0--------0-----|--0------------0--------0--------0--|
--2------------2--------2--------2--|--0---------------------------------|
--3---------------------------------|--2---------------------------------|
------------------------------------|--3---------------------------------|


  Q.     Q.     H.              Q.     Q.     H.            
--2------3------2------------|--2------3------2------------|
--3------3------3------------|--3------3------3------------|
--2------2------2------------|--2------2------2------------|
--0------0------0------------|--0------0------0------------|
-----------------------------|-----------------------------|
-----------------------------|-----------------------------|


  Q.     E  E  E  E  E  E  E  E  E     Q.     E  E  E  E  E  E  E  E  E   
------------------------------------|--3------3--------3--------3--------|
--3------3--------3--------3--------|--0---------0--------0--------0-----|
--0---------0--------0--------0-----|--0------------0--------0--------0--|
--2------------2--------2--------2--|--0---------------------------------|
--3---------------------------------|--2---------------------------------|
------------------------------------|--3---------------------------------|


  Q.     E  E  E  E  E  E  E  E  E     E  E  E  E  E  E  E  E  E  E  E  E   
--3------3--------3--------3--------|--5--------5--------3--------3--------|
--0---------0--------0--------0-----|--7--------7--------5--------5--------|
--0------------0--------0--------0--|-----7--------7--------5--------5-----|
--0---------------------------------|--------0--------0--------0--------0--|
--2---------------------------------|--------------------------------------|
--3---------------------------------|--------------------------------------|


  E  E  E  E  E  E  E  E  E  E  E  E     E  E  E  E  E  E  E  E  E  E  E  E   
--3--------3--------3--------3--5--3--|--5--------5--------3--------3--------|
--3--------3--------3--------3--3--3--|--7--------7--------5--------5--------|
-----4--------4--------3-----3--3--3--|-----7--------7--------5--------5-----|
--------0--------0--------0-----------|--------0--------0--------0--------0--|
--------------------------------------|--------------------------------------|
--------------------------------------|--------------------------------------|


  E  E  E  E  E  E  E  E  E  E  E  E     E  E  E  E  E  E  E  E  E  E  E  E   
--3--------3--------3--------3--5--3--|--5--------5--------3--------3--------|
--3--------3--------3--------3--3--3--|--7--------7--------5--------5--------|
-----4--------4--------3-----3--3--3--|-----7--------7--------5--------5-----|
--------0--------0--------0-----------|--------0--------0--------0--------0--|
--------------------------------------|--------------------------------------|
--------------------------------------|--------------------------------------|


  E  E  E  E  E  E  E  E  E  E  E  E     E  E  E  E  E  E  E  E  E  E  E  E   
--3--------3--------3--------3--5--3--|--5--------5--------3--------3--------|
--3--------3--------3--------3--3--3--|--7--------7--------5--------5--------|
-----4--------4--------3-----3--3--3--|-----7--------7--------5--------5-----|
--------0--------0--------0-----------|--------0--------0--------0--------0--|
--------------------------------------|--------------------------------------|
--------------------------------------|--------------------------------------|


  E  E  E  E  E  E  E  E  E  E  E  E     E  E  E  E  E  E  E  E  E  E  E  E   
--3--------3--------3--------3--5--3--|--5--------5--------3--------3--------|
--3--------3--------3--------3--3--3--|--7--------7--------5--------5--------|
-----4--------4--------3-----3--3--3--|-----7--------7--------5--------5-----|
--------0--------0--------0-----------|--------0--------0--------0--------0--|
--------------------------------------|--------------------------------------|
--------------------------------------|--------------------------------------|


  E  E  E  E  E  E  E  E  E  E  E  E     E  E  E  E  E  E  E  E  E  E  E  E   
--3--------3--------3--------3--5--3--|--5--------5--------3--------3--------|
--3--------3--------3--------3--3--3--|--7--------7--------5--------5--------|
-----4--------4--------3-----3--3--3--|-----7--------7--------5--------5-----|
--------0--------0--------0-----------|--------0--------0--------0--------0--|
--------------------------------------|--------------------------------------|
--------------------------------------|--------------------------------------|


                    ^                                                  
  E  E  E  E  E  E  H.              E  E  E  Q.     E  E  E  E  E  E   
--3--------3--------3------------|---------------------------3--------|
--3--------3--------3------------|-----------3------------------0-----|
-----4--------4-----0------------|--------0---------------0--------0--|
--------0--------0--0------------|-----2---------------0--------------|
---------------------------------|--3---------------------------------|
---------------------------------|------------------3-----------------|


  ^                  
  W.                 
--2----------------||
--3----------------||
--2----------------||
--0----------------||
-------------------||
-------------------||




Duration Legend
---------------
W - whole
H - half
Q - quarter
E - 8th
S - 16th
T - 32nd
X - 64th
. - note dotted
|-n-|  - n-tuplets


Tablature Legend
----------------
L - tied note
x - dead note
g - grace note
(n) - ghost note
> - accentuded note
NH - natural harmonic
AH - artificial harmonic
TH - tapped harmonic
SH - semi harmonic
PH - pitch harmonic
h - hammer on
p - pull off
b - bend
br - bendRelease
pb - preBend
pbr - preBendRelease
brb - bendReleaseBend
\n/ - tremolo bar dip
\n - tremolo bar dive
-/n - tremolo bar Release up
/n\ - tremolo bar inverted dip
/n - tremolo bar return
-\n - tremolo bar Release down
S - shift slide
s - legato slide
/ -  slide into from below or out of upwards
\ -  slide into from above or out of downwards
~ - vibrato
W - wide vibrato
tr - trill
TP - tremolo picking
T - tapping
S - slap
P - pop
< - fade in
^ - brush up
v - brush down





Comments


Popular Journey tabs & chords
Stay Awhile Bass Tabs
Ask The Lonely Chords
Don't Be Down On Me Baby Chords
Walkin Away From The Edge Chords
Dont Stop Believing 9 Tabs
Faithfully 2 Tabs
Faithfully 3 Tabs
Who's Crying Now Tabs
Resonate Ukulele
With Your Love Ukulele


Song lyrics



↑ Back to top | Tablatures and chords are parodies/interpretations of the original songs. You may use it for private study, scholarship, research or language learning purposes only
© 2014 AZChords.com Contact us | Privacy policy | DMCA | Add/correct tabs | Request tabs | Top 50 tabs