>
 >
Stay Awhile

Stay Awhile Bass Tabs

Journey - Stay Awhile chords, tabs, tablatures, lyrics

Guitar lessons | Add/correct | Request | Top 50 tabs Artists:  A B C D E F G H I J K L M N O P Q R S T U V W X Y Z 0-9

Stay Awhile Bass Tabs – Journey

CD, Sheet music, Poster

Do you like Stay Awhile? Share with your friends now
Bass TabsTabs
-----------------------------------------------------------------------------
                   Stay Awhile - Journey (BASS)
                       
-----------------------------------------------------------------------------

Tuning: Standard

=============================================================================

Bass



     Q.     E  E  E  Q.     E  E  E     H.           E  E  E  E  E  E   
G||----------------------------------|---------------------------------|
D||----------------------------------|---------------7--5--4-----------|
A||--5------L--0--2--3------L-----3--|--2---------------------5--3--0--|
E||----------------------------3-----|---------------------------------|


  Q.     E  E  E  Q.     E  E  E     H.           H.            
----------------------------------|----------------------------|
----------------------------------|----------------------------|
--5------L--0--2--3------L-----3--|--2------------1------------|
----------------------------3-----|----------------------------|


  Q.     Q    E  Q.     Q    E     H.           Q.     E  E  E   
--------------------------------|-------------------------------|
--------------------------------|-------------------------------|
--5------L-------5------L----5--|----------------------3--2-----|
--------------5-----------------|--3------------3------------3--|


  Q.     Q    E  Q.     Q    E     H.           Q.     E  E  E   
--------------------------------|-------------------------------|
--------------------------------|-------------------------------|
--5------L-------5------L----5--|----------------------3--2-----|
--------------5-----------------|--3------------3------------3--|


  Q.     Q    E  Q.     E  E  E     H.           Q.     E  E  E   
---------------------------------|-------------------------------|
---------------------------------|-------------------------------|
--5------L-------5------L--0--5--|-------------------------0--2--|
--------------5------------------|--3------------3------L--------|


  Q.     E  E  E  H.              Q.     E  S S S S H.            
-------------------------------|----------------5----------------|
-------------------------------|------------5-7---7--------------|
--3------L--2--0---------------|--5------5----------5------------|
------------------3------------|---------------------------------|


  Q.     Q    E  Q.     Q    E     H.           Q.     E  E  E   
--------------------------------|-------------------------------|
--------------------------------|-------------------------------|
--5------L-------5------L----5--|----------------------3--2-----|
--------------5-----------------|--3------------3------------3--|


  Q.     Q    E  Q.     Q    E     H.           Q.     E  E  E   
--------------------------------|-------------------------------|
--------------------------------|-------------------------------|
--5------L-------5------L----5--|----------------------3--2-----|
--------------5-----------------|--3------------3------------3--|


  Q.     Q    E  Q.     E  E  E     Q.     E  E  E  Q.     E  E  E   
-----------------7------7--------|----------------------------------|
--------------7------------------|----------------------------------|
--5------L-----------------0--5--|----------------------------0--2--|
---------------------------------|--3------8--7--5--3------L--------|


  Q.     E  E  E  H.              Q.     E  S S S S E  E  E  E  E  E   
-------------------------------|----------------5---------------------|
-------------------------------|------------5-7---7-------------------|
--3------L--2--0---------------|--5------5----------5--5--5--5--5--5--|
------------------3------------|--------------------------------------|


  Q.     Q    E  Q.     E  E  E     Q.     Q.     Q.     E  E  E   
---------------------------------|--------------------------------|
---------------------------------|-----------------------------2--|
--3------L-------3------L--2--0--|--------------------------2-----|
--------------3------------------|--3------3------3------3--------|


  Q    E  Q    E  Q    E  E  E  E     Q    E  Q    E  E  E  E  E  E  E   
--------------------------------7--|---------------------7-----7--------|
-----------------------------7-----|------------------7-----7-----7-----|
--5----5--5----5--5----5--5--------|--5----5--5----5-----------------5--|
-----------------------------------|------------------------------------|


  Q.     Q    E  Q.     E  E  E     Q.     Q    E  Q.     E  E  E   
---------------------------------|---------------------------------|
---------------------------------|---------------------------------|
--3------L-------3------L--2--0--|---------------------------2--5--|
--------------3------------------|--3------L----3--3------3--------|


  Q    E  Q    E  E  E  E  E  E  E     Q.     Q.     Q.     Q.      
------------------------------------|---------7-------------7------|
--5----5--5----5--------------------|------------------------------|
------------------------------------|--5-------------5-------------|
------------------3--3--3--3--3--3--|------------------------------|


  Q.     Q.     E  E  E  E  E  E     Q.     Q.     Q.     Q.      
---------7------------------------|---------7-------------7------|
----------------7--5--4-----------|------------------------------|
--5----------------------5--3--0--|--5-------------5-------------|
----------------------------------|------------------------------|


  Q.     Q.     E  E  E  E  E  E     Q.     E  E  E  Q.     E  E  E   
---------7------------------------|----------------------------------|
----------------7--5--4-----------|----------------------------------|
--5----------------------5--3--0--|--5------L--0--2--3------L-----3--|
----------------------------------|----------------------------3-----|


  H.           Q.     E  E  E     Q.     E  E  E  Q.     E  E  E   
-------------------------------|----------------------------------|
-------------------------------|----------------------------------|
--2------------1------1--0-----|--5------L--0--2--3------L-----3--|
----------------------------3--|----------------------------3-----|


  H.           Q.     E  E  E     Q.     E  E  E  Q.     E  E  E   
-------------------------------|----------------------------------|
-------------------------------|----------------------------------|
--2------------1------1--0-----|--5------L--0--2--3------L-----3--|
----------------------------3--|----------------------------3-----|


  H.           Q.     E  E  E     Q.     E  E  E  Q.     E  E  E   
-------------------------------|----------------------------------|
-------------------------------|----------------------------------|
--2------------1------1--0-----|--5------L--0--2--3------L-----3--|
----------------------------3--|----------------------------3-----|


  H.           H.              H.           H.              W.                 
----------------------------|----------------------------|-------------------||
----------------------------|----------------------------|-------------------||
--2------------1------------|--3-------------------------|--5----------------||
----------------------------|---------------3------------|-------------------||




Duration Legend
---------------
W - whole
H - half
Q - quarter
E - 8th
S - 16th
T - 32nd
X - 64th
. - note dotted
|-n-|  - n-tuplets


Tablature Legend
----------------
L - tied note
x - dead note
g - grace note
(n) - ghost note
> - accentuded note
NH - natural harmonic
AH - artificial harmonic
TH - tapped harmonic
SH - semi harmonic
PH - pitch harmonic
h - hammer on
p - pull off
b - bend
br - bendRelease
pb - preBend
pbr - preBendRelease
brb - bendReleaseBend
\n/ - tremolo bar dip
\n - tremolo bar dive
-/n - tremolo bar Release up
/n\ - tremolo bar inverted dip
/n - tremolo bar return
-\n - tremolo bar Release down
S - shift slide
s - legato slide
/ -  slide into from below or out of upwards
\ -  slide into from above or out of downwards
~ - vibrato
W - wide vibrato
tr - trill
TP - tremolo picking
T - tapping
S - slap
P - pop
< - fade in
^ - brush up
v - brush down





Comments


Popular Journey tabs & chords
Lights 2 Bass Tabs
Dont Stop Believing 5 Chords
Any Way You Want It 1 Tabs
Desert You Tabs
Dont Stop Believing Tabs
The Partys Over Tabs
Who's Cryin' Now Tabs
After All These Years Ukulele
Easy To Fall Ukulele
Lovely Woman Ukulele


Song lyrics



↑ Back to top | Tablatures and chords are parodies/interpretations of the original songs. You may use it for private study, scholarship, research or language learning purposes only
© 2014 AZChords.com Contact us | Privacy policy | DMCA | Add/correct tabs | Request tabs | Top 50 tabs