>
 >
Signs Of Life

Signs Of Life Guitar Tabs

Journey - Signs Of Life chords, tabs, tablatures, lyrics

Guitar lessons | Add/correct | Request | Top 50 tabs Artists:  A B C D E F G H I J K L M N O P Q R S T U V W X Y Z 0-9

Signs Of Life Guitar Tabs – Journey

CD, Sheet music, Poster

Do you like Signs Of Life? Share with your friends now
TabsTabs v2

Journey - Signs Of Life
=======================


Tab Explanation
===============

s	Slide
h	Hammer-on
p	Pull-off
T	Tap
B	Bend the note to the fret after the B
R	Release back to the originally bent note
A.H.	Artificial Harmonic
m	Palm Muted
//	Trem Pick (Pick as fast as possible)

==============================
						     m
e|------|-------|--|-----------|------------|------|------|
B|------|-------|--|-----------|------------|------|---5~-|
G|------|-------|--|-----------|------------|------|---6~-|
D|------|-5~--7~|--|-7s9~--11~-|------------|-5~-9~|-7-7~-|
A|------|-5~--7-|--|-7s9~--11~-|------------|-5~-9~|-7-7~-|
E|-15s3-|-3~--5~|--|-5s7~--9~--|-9h10p9s7-5s|-3~-7~|-5-5~-|

Verse
=====
It's been 40 days since I heard from you
This waiting game you put me through
I feel the silence killing me
Day to day

   m m m m m m m   m m m m m m m m    m m m m m m   m m m      m m m 
e|---------------------------------|----------------------------------|
B|---------------------------------|---------------5---5-5-s7-5-------|
G|-7---7---6-7---7---7---7-6-7-----|-7---7---6-7----------------7-6---|
D|---7---7-----7---7---7-------7-7-|---7---7-----7---7--------------7-|
A|---------------------------------|----------------------------------|
E|---------------------------------|----------------------------------|

     m m m m m m   m m m m m m
e|---------------------------------|----------------------------------|
B|---------------------------------|----------------------------------|
G|-7---7---6-7---7---7---7-6-7-----|-5~-------------------------------|
D|---7---7-----7---7---7-------7---|-5~-------------------------------|
A|---------------------------------|-3~-------------------------------|
E|---------------------------------|----------------------------------|

Chorus
======
e|------------------------2-2~-2-2-2-2-----------3-5-2~-2-----3~s5----|
B|------------------------3-3~-3-2-3-3~-------5~----------3---3~s5-3~-|
G|-7~-7-7~-7-6-7-7~-xx----4-4~-4-4-4-4~-------5~------------0-0~---2~-|
D|-7~-7-7~-7-7-7-7~-xx----4-4~-4-4-4-4~-------5~--------------0~---0~-|
A|-5~-5-5~-5-5-5-5~-xx-2~-2-2~-2-2-2-2~-0-2-3-3~----------------------|
E|--------------------------------------------------------------------|

e|---------------7------------|
B|-------14--------8----------|
G|----------14s7-----7-7h9-7~-| Gtr. 2 (Fill)
D|-12s14----------------------|
A|----------------------------|
E|----------------------------|

e|---------------------------------------------------------------|
B|---------------------3-3---------3-3----------3--------3-3-2-2-|
G|-7~-7-7~-7-6-7-7~----2-2-2-------2-2-2---2----4--------2-2-2-2-|
D|-7~-7-7~-7-7-7-7~----4-4---4~----------4--------5-5------------|
A|-5~-5-5~-5-5-5-5~----4-4----------------------------0~---------|
E|------------------2~----------2~-----------3~------------------|

Interlude
=========
e|------|--|--------|---------------|
B|------|--|--------|---------------|
G|------|--|--------|---------------|
D|------|--|--------|---------------|
A|------|--|--------|---------------|
E|-3~-5~|--|-5s7~-9~|-9-9h10p9s7s5s-|

Gtr. 2			    \1/				A.H
e|-10s12~-s10-9-----------------------------------------------|
B|--------------10-------------------10b12r10~-7b8r7----------|
G|-----------------9~-7h9s11~~~~s9-7-----------------9s7------|
D|-------------------------------------------------------7s9~-|
A|------------------------------------------------------------|
E|------------------------------------------------------------|

Verse (as before)
=====


Chorus (as before followed by shown tab)
======
e|-----------2-0---------------|
B|-3-------3-----3-------------|
G|-2-----2---------2-0---------|
D|-0-2s4---------------4-0-----|
A|-------------------------4-0-|
E|-----------------------------|
 |
e|-----------2-0---------------|
B|---------3-----3-------------|
G|-------2---------2-0-----0-2-|
D|---2s4---------------4-4-----|
A|-----------------------------|
E|-----------------------------|

Bridge
======
e|---3-3--------2h3-3----------------------------|
B|---3-3-3------3---3-3--------2h3-3-2---3~-3-3~-|
G|---5-5-5-5------------0------2---2---2-2~-2-2~-|
D|-5-----5-5--------------0-2~-----------0~-0-0~-|
A|-3-------3-2~-------------0~-------------------|
E|-----------------------------------------------|
	m m m
e|----------------------------1~-1----------1-----1--1---|
B|------------3~-3------------1~-1----------1-----1--1---|
G|-5~-5-------4~-4-x-x--------2~-2----------2-----2--2---|
D|-5~-5-------4~-4-x-x--------3~-3----------3-----3--3---|
A|-3~-3-0-0-2-2~-2-x-x-2-2----3~-3--3-3-3-3-3-x-3-3--3-3-|
E|-------------------------00-1~-1----------------1----1-|

e|-3~-3----------3---3-3-3---5~-5----------5-5-5-5s-|
B|-3~-3----------3---3-3-3---5~-5----------5-5-5-5s-|
G|-5~-4----------5---5-5-4---7~-6----------7-7-6-6s-|
D|-5~-5--5-5-5-5-5-5-5-5-5---7~-7--7-7-7-7-7-7-7-7s-|
A|-5~-5----------5---5-5-5-5s7~-7----------7-7-7-7s-|
E|-3~-3----------3---3-3-3-3s5~-5----------5-5-5-5s-|

Guitar Solo (w/lots of trem bar vibrato use)
===========
  Gtr. 2 \.5/   \.5/	  \.5/
e|--------------------|---------------------------------------------------10-12s|
B|-s10-10-8-7-s5-7-7~-|-10-10-8-7-10b12-r10-------------10-12p10----10-12-------|
G|--s7--7-------------|--7--7---------------10p9s7~-s11----------11-------------|
D|--------------------|---------------------------------------------------------|
A|--------------------|---------------------------------------------------------|
E|--------------------|---------------------------------------------------------|
 |Gtr. 1
e|--------------------|---------------------------------------------------------|
B|--------------------|---------------------------------------------------------|
G|--------------------|---------------------------------------------------------|
D|--------------------|---------------------------------------------------------|
A|-2~-----------------|---------------------------------------------------------|
E|--------------------|-2~------------------------------------------------------|

     \.5/ \.5/	    |sweep|
e|-15~s12-12~-s14~-|-14---------------------------------------------------------
B|-----------------|---15---15~-------------------------------------------------
G|-----------------|-----16-----16-14-12----------------------------------12-14-
D|-----------------|---------------------16-14-12----------------12-14-16-------
A|-----------------|------------------------------16-14-12-14-16----------------
E|-----------------|------------------------------------------------------------
 |
e|-----------------|------------------------------------------------------------
B|-----------------|------------------------------------------------------------
G|-----------------|------------------------------------------------------------
D|-----------------|------------------------------------------------------------
A|-----------------|------------------------------------------------------------
E|-3~------5~------|-7~--------9~--------------------------9h10p9s7-5s----------

e|----------------|---17-----17-----17-----17-14~|-17-----17-----17b19-17~-15-14-|
B|----14-15-17s19~|~~----17~----15~----14~-------|----17~----15~-----------------|
G|-16-------------|------------------------------|-------------------------------|
D|----------------|------------------------------|-------------------------------|
A|----------------|------------------------------|-------------------------------|
E|----------------|------------------------------|-------------------------------|
 |
e|----------------|------------------------------|-------------------------------|
B|----------------|------------------------------|-------------------------------|
G|----------------|------------------------------|-------------------------------|
D|----------------|------------------------------|-------------------------------|
A|----------------|------------------------------|-------------------------------|
E|----------------|-3~----------5~---------------|-7~--------9~------9h10p9s7-5s-|

  \.5/\.5/\.5/\.5/
e|-14--14--15--14------------------------------------------------------------17-|
B|-----------------17-15-14----------------------------------------14-17s19~----|
G|--------------------------16-14-13-------------------------14-16--------------|
D|-----------------------------------16-14-12----------14-16--------------------|
A|--------------------------------------------16-14-16--------------------------|
E|------------------------------------------------------------------------------|
 |
e|------------------------------------------------------------------------------|
B|------------------------------------------------------------------------------|
G|------------------------------------------------------------------------------|
D|------------------------------------------------------------------------------|
A|------------------------------------------------------------------------------|
E|-3~------------------------------------------2~-------------------------------|
 
e|-14--14s12----12~----|
B|-----------15--------|
G|---------------------|
D|---------------------|
A|---------------------|
E|---------------------|
 |
e|-0~-----0~----0~-----|
B|-3~-----2-----2~-----|
G|-2~-----2-----2~-----|
D|-2~-----2-----2~-----|
A|-0~-----0-----0~-----|
E|---------------------|

Interlude (Gtr. 1 w/volume knob turned down)
=========
Turn up volume knob on last D chord
e|--------------------------|-----------------------|------------------------|
B|----10-10-8-7------7~-----|----10-10-8-7------10~-|-8~-8-7--------------7~-|
G|-----7--7-7-7----9-7~-9-7-|-----7--7-7-7----7--7~-|-7~-7-7-7-----7~-7s9-7~-|
D|-0~-----------7~-7--------|--------------7--------|-5~-----7-7s5-5~-5s7-7~-|
A|--------------0~----------|-----------------------|---------------------5~-|
E|--------------------------|-7~--------------------|------------------------|

e|---------------7------------|
B|-------14--------8----------|
G|----------14s7-----7-7h9-7~-| Gtr. 2 (Fill)
D|-12s14----------------------|
A|----------------------------|
E|----------------------------|

Chorus
======
e|------------------------2-2~-2-2-2-2-----------3-5-2~-2-----3~s5----|
B|------------------------3-3~-3-2-3-3~-------5~----------3---3~s5-3~-|
G|-7~-7-7~-7-6-7-7~-xx----4-4~-4-4-4-4~-------5~------------0-0~---2~-|
D|-7~-7-7~-7-7-7-7~-xx----4-4~-4-4-4-4~-------5~--------------0~---0~-|
A|-5~-5-5~-5-5-5-5~-xx-2~-2-2~-2-2-2-2~-0-2-3-3~----------------------|
E|--------------------------------------------------------------------|

e|---------------7------------|
B|-------14--------8----------|
G|----------14s7-----7-7h9-7~-| Gtr. 2 (Fill)
D|-12s14----------------------|
A|----------------------------|
E|----------------------------|

e|----------------------------------------------3----------------|
B|---------------------3-3---------3-3----------3-3------3-3-2-2-|
G|-7~-7-7~-7-6-7-7~----2-2-2-------2-2-2---2----4-4-4----2-2-2-2-|
D|-7~-7-7~-7-7-7-7~----4-4---4~----------4----------5------------|
A|-5~-5-5~-5-5-5-5~----4-4------2~--------------------0~---------|
E|------------------2~-----------------------3~------------------|

  Gtr. 2
e|-----------------------|-------------------|---------------10--9-----|
B|---10b12~-r10~---8--7--|----------7----7h8-|-7~-10b12r10~---------10-|
G|-----------------------|-9-7-7~-9---9~-----|-------------------------|
D|-----------------------|-------------------|-------------------------|
A|-----------------------|-------------------|-------------------------|
E|-----------------------|-------------------|-------------------------|
 |Gtr. 1
e|-----------------------|-------------------|-------------------------|
B|-----------------------|-------------------|-------------------------|
G|-----------------------|-------------------|-------------------------|
D|-----------------------|-------------------|-------------------------|
A|-2~-------4~-4b5r4s2---|-------------------|-------------------------|
E|---------------------5s|-3~------------5~--|-7~-------9~-9b10r9s7s5s-|

e|-10s12~-12s10p9-----------------|
B|----------------10--------------|
G|-------------------9s7s6--------|
D|-------------------------7s9s7~-|
A|--------------------------------|
E|--------------------------------|
 |
e|-3~-----------------------------|
B|-3~-----------------------------|
G|-4~-----------------------------|
D|-5~-----------------------------|
A|-5~-----------------------------|
E|-3~-----------------------------|





Comments


Popular Journey tabs & chords
The Partys Over Bass Tabs
Live And Breathe Chords
Open Arms 3 Chords
Dont Stop Believing 2 Tabs
Dont Stop Believing 3 Tabs
Lovin, Touchin, Squeezin Tabs
Open Arms 3 Tabs
Open Arms Intro Tabs
Signs Of Life 1 Tabs
Wildest Dream Tabs


Song lyrics



↑ Back to top | Tablatures and chords are parodies/interpretations of the original songs. You may use it for private study, scholarship, research or language learning purposes only
© 2014 AZChords.com Contact us | Privacy policy | DMCA | Add/correct tabs | Request tabs | Top 50 tabs