>
 >
Patiently 1

Patiently 1 Guitar Tabs

Journey - Patiently 1 chords, tabs, tablatures, lyrics

Guitar lessons | Add/correct | Request | Top 50 tabs Artists:  A B C D E F G H I J K L M N O P Q R S T U V W X Y Z 0-9

Patiently 1 Guitar Tabs – Journey

CD, Sheet music, Poster

Do you like Patiently 1? Share with your friends now
Bass TabsTabsTabs v2
-----------------------------------------------------------------------------
                      Patiently - Journey (GUITAR)

-----------------------------------------------------------------------------

Tuning: Standard

=============================================================================


Guitar - acoustic



     W                   S S S S S S S S S S S S S S S S
E||-------------------|----3-------3-------3-------3-----|
B||-------------------|------0-------0-------0-------0---|
G||-------------------|--------0-------0-------0-------0-|
D||-------------------|--1-------1-------1-------1-------|
A||-------------------|----------------------------------|
E||-------------------|----------------------------------|


  S S S S S S S S S S S S S S S S    S S S S S S S S S S S S S S S S
----3-------3-------3-------3-----|----3-------3-------3-------3-----|
------0-------0-------0-------0---|------0-------0-------0-------0---|
--------0-------0-------0-------0-|--------0-------0-------0-------0-|
--1-------1-------1-------1-------|--2-------2-------2-------2-------|
----------------------------------|----------------------------------|
----------------------------------|----------------------------------|


  S S S S S S S S H           S S S S S S S S S S S S S S S S
----3-------3--------------|----------------------------------|
------0-------0------------|--------1-L-------------3-L-------|
--------0-------0----------|------0-----0---------0-----0-----|
--3-------3-------3--------|----2---------2-----0-----------0-|
---------------------------|--3-------------3-2-----------2---|
---------------------------|----------------------------------|


  S S S S S S S S S S S S S S S S    S S S S S S S S S S S S S S S S
------------------------0-L-------|--------0---1-----------1---------|
--------3-L-----------------2-----|------3-------3-------3-----3-----|
------0-----0---------2---------0-|----2-----------2---2-----2---2-0-|
----0-----------0---2---------2---|--0-------0-----------------------|
--1-----------1---0---------------|------------------4---------------|
----------------------------------|----------------------------------|


  S S S S S S S S S S S S S S S S    S S S S S S S S S S S S S S S S
--------1---------------3-L-------|----------------------------------|
------3-----3---------------3-----|--------1-L-------------3-L-------|
----2-----2---2-0-----0---------0-|------0-----0---------0-----0-----|
--------------------0---------0---|----2---------2-----0-----------0-|
--3---------------2---------------|--3-------------3-2-----------2---|
----------------------------------|----------------------------------|


  S S S S S S S S S S S S S S S S    S S S S S S S S S S S S S S S S
------------------------0-L-------|--------0---1-----------1---------|
--------3-L-----------------2-----|------3-------3-------3-----3-----|
------0-----0---------2---------0-|----2-----------2---2-----2---2-0-|
----0-----------0---2---------2---|--0-------0-----------------------|
--1-----------1---0---------------|------------------4---------------|
----------------------------------|----------------------------------|


  S S S S S S S S S S S S S S S S    S S S S S S S S S S S S S S S S
--------1---------------3-L-------|----------------------------3-----|
------3-----3---------------3-----|--------1-L-------------3-L-----3-|
----2-----2---2-0-----0---------0-|------0-----0---------0-------0---|
--------------------0---------0---|----2-----------0---0-------------|
--3---------------2---------------|--3-----------3---2---------------|
----------------------------------|----------------------------------|


  S S S S S S S S S S S S S S S S    S S S S S E  S S S S S S E  S
------------------------0-L-------|--------------------------------|
--------0-L-1---------------1-----|--------3-L------------3-L------|
------2-------2-------2---------2-|--------------------------------|
----2-----------2---2---------2---|------2-----2--------2-----2----|
--0-------------------------------|----0----------0---0----------0-|
------------------3---------------|--2--------------2--------------|


  S S S S S S S S S S S S S S S S    S S S S S S S S S S S S S S S S
--------0-L-------------0-L-------|----------------------------3-----|
------------1---------------1-----|--------1-L-------------3-L-----3-|
------2---------2-----2---------0-|------0-----0---------0-------0---|
----2---------2-----2---------2---|----2-----------0---0-------------|
----------------------------------|--3-----------3---2---------------|
--1---------------1---------------|----------------------------------|


  S S S S S S S S S S S S S S S S    S S S S S E  S S S S S S E  S
------------------------0-L-------|--------------------------------|
--------0-L-1---------------1-----|--------3-L------------3-L------|
------2-------2-------2---------2-|--------------------------------|
----2-----------2---2---------2---|------2-----2--------2-----2----|
--0-------------------------------|----0----------0---0----------0-|
------------------3---------------|--2--------------2--------------|


  S S S S S S S S S S S S S S S S    S S S S S S S S S S S S S S S S
--------0-L-------------0-L-------|----------------------------------|
------------1---------------1-----|--------1-L-------------3-L-------|
------2---------2-----2---------0-|------0-----0---------0-----0-----|
----2---------2-----2---------2---|----2---------2-----0-----------0-|
----------------------------------|--3-------------3-2-----------2---|
--1---------------1---------------|----------------------------------|


  S S S S S S S S S S S S S S S S    S S S S S S S S S S S S S S S S
------------------------0-L-------|--------0---1-----------1---------|
--------3-L-----------------2-----|------3-------3-------3-----3-----|
------0-----0---------2---------0-|----2-----------2---2-----2---2-0-|
----0-----------0---2---------2---|--0-------0-----------------------|
--1-----------1---0---------------|------------------4---------------|
----------------------------------|----------------------------------|


  S S S S S S S S S S S S S S S S    S S S S S S S S S S S S S S S S
--------1---------------3-L-------|----------------------------------|
------3-----3---------------3-----|--------1-L-------------3-L-------|
----2-----2---2-0-----0---------0-|------0-----0---------0-----0-----|
--------------------0---------0---|----2---------2-----0-----------0-|
--3---------------2---------------|--3-------------3-2-----------2---|
----------------------------------|----------------------------------|


  S S S S S S S S S S S S S S S S    S S S S S S S S S S S S S S S S
------------------------0-L-------|--------0---1-----------1---------|
--------3-L-----------------2-----|------3-------3-------3-----3-----|
------0-----0---------2---------0-|----2-----------2---2-----2---2-0-|
----0-----------0---2---------2---|--0-------0-----------------------|
--1-----------1---0---------------|------------------4---------------|
----------------------------------|----------------------------------|


                 ^
  S S S S S S E  Q.     E.  S S S    E  S S S S S S E  S S S S S S
--------1--------3----------------|--------------------------------|
------3-----3----0----------------|-------1-----3--------1-----1---|
----2-----2---0--0----------------|--------------------------------|
-----------------0----------------|-----2-----0--------2-----2-----|
--3--------------2----------0-2-3-|--L------2-----0-L--------------|
-----------------3----------------|------------------------3-----2-|


                     PM PM PM PM PM
  E  S S S S S S S S T  T  T  T  S  S S S    E  S S S S S S E  S S S S S S
---------------------0--0--0--0--0--------|--------------------------------|
---------3-----------1--1--1--1--1--------|-------1-----3--------1-----1---|
-------2---2---------2--2--2--2--2--------|--------------------------------|
-----0-------0----------------------------|-----2-----0--------2-----2-----|
------------------------------------0-2-3-|--L------2-----0-L--------------|
--L------------0-1-1----------------------|------------------------3-----2-|


                     PM PM PM PM PM
  E  S S S S S S S S T  T  T  T  S  S S S    E  S S S S S S E  S S S S S S
---------------------0--0--0--0--0--------|--------------------------------|
---------3-----------1--1--1--1--1--------|-------1-----3--------1-----1---|
-------2---2---------2--2--2--2--2--------|--------------------------------|
-----0-------0----------------------------|-----2-----0--------2-----2-----|
------------------------------------0-2-3-|--L------2-----0-L--------------|
--L------------0-1-1----------------------|------------------------3-----2-|


                     PM PM PM PM PM
  E  S S S S S S S S T  T  T  T  S  S S S    E  S S S S S S E  S S S S S S
---------------------0--0--0--0--0--------|--------------------------------|
---------3-----------1--1--1--1--1--------|-------1-----3--------1-----1---|
-------2---2---------2--2--2--2--2--------|--------------------------------|
-----0-------0----------------------------|-----2-----0--------2-----2-----|
------------------------------------0-2-3-|--L------2-----0-L--------------|
--L------------0-1-1----------------------|------------------------3-----2-|


  E  Q.     Q.     S S    Q    E.  Q    S E.  S    Q.     S S S Q    S S S
-----------------------|------------------------|--------------------------|
-----------------------|------------------3-----|--------------------------|
-----------------------|----------------------2-|--L-----------------------|
-----------------------|-----------2------0---0-|--L-----------------------|
-------------------2-3-|--L----2---0------------|---------------3------2-3-|
--L--------------------|------------------3---2-|--L--------0-1-1----------|


  Q    E.  Q    S E.  S    Q.     S S S Q    S S S    Q    E.  Q    S E.  S
------------------------|--------------------------|------------------------|
------------------3-----|--------------------------|------------------3-----|
----------------------2-|--L-----------------------|----------------------2-|
-----------2------0---0-|--L-----------------------|-----------2------0---0-|
--L----2---0------------|---------------3------2-3-|--L----2---0------------|
------------------3---2-|--L--------0-1-1----------|------------------3---2-|


  Q.     S S S Q    S S S    Q    E.  Q    S E.  S    Q.     S S S Q    S S S
--------------------------|------------------------|--------------------------|
--------------------------|------------------3-----|--------------------------|
--L-----------------------|----------------------2-|--L-----------------------|
--L-----------------------|-----------2------0---0-|--L-----------------------|
---------------3------2-3-|--L----2---0------------|---------------3------2-3-|
--L--------0-1-1----------|------------------3---2-|--L--------0-1-1----------|


  Q    E.  Q    S E.  S    Q.     S S S Q    S S S    Q    E.  Q    S E.  S
------------------------|--------------------------|------------------------|
------------------3-----|--------------------------|------------------3-----|
----------------------2-|--L-----------------------|----------------------2-|
-----------2------0---0-|--L-----------------------|-----------2------0---0-|
--L----2---0------------|---------------3------2-3-|--L----2---0------------|
------------------3---2-|--L--------0-1-1----------|------------------3---2-|


  Q.     E     S S S S S S S S S S S S S S S S
------------|--------0-L-------------0-L-------|
------------|------------1---------------1-----|
--L---------|------2---------2-----2---------2-|
--L---------|----2---------2-----2---------2---|
------------|----------------------------------|
--L---------|--1---------------1---------------|


  S S S S S S S S S S S S S S S S    S S S S S S S S S S S S S S S S
--------0-L-------------0-L-------|--------0-L-------------0-L-------|
------------0---------------0-----|------------1---------------1-----|
------0---------0-----0---------0-|------2---------2-----2---------2-|
----2---------2-----2---------2---|----2---------2-----2---------2---|
----------------------------------|----------------------------------|
--0---------------0---------------|--1---------------1---------------|


  S S S S S S S S S S S S S S S S    S S S S S S S S S S S S S S S S
----------------------------------|------------------------0-L-------|
--------1-L-------------3-L-------|--------3-L-----------------2-----|
------0-----0---------0-----0-----|------0-----0---------2---------0-|
----2---------2-----0-----------0-|----0-----------0---2---------2---|
--3-------------3-2-----------2---|--1-----------1---0---------------|
----------------------------------|----------------------------------|


  S S S S S S S S S S S S S S S S    S S S S S S S S S S S S S S S S
--------0---1-----------1---------|--------1---------------3-L-------|
------3-------3-------3-----3-----|------3-----3---------------3-----|
----2-----------2---2-----2---2-0-|----2-----2---2-0-----0---------0-|
--0-------0-----------------------|--------------------0---------0---|
------------------4---------------|--3---------------2---------------|
----------------------------------|----------------------------------|


  S S S S S S S S S S S S S S S S    S S S S S S S S S S S S S S S S
----------------------------------|------------------------0-L-------|
--------1-L-------------3-L-------|--------3-L-----------------2-----|
------0-----0---------0-----0-----|------0-----0---------2---------0-|
----2---------2-----0-----------0-|----0-----------0---2---------2---|
--3-------------3-2-----------2---|--1-----------1---0---------------|
----------------------------------|----------------------------------|


                                                    ^
  S S S S S S S S S S S S S S S S    S S S S S S E  H
--------0---1-----------1---------|--------1--------3--------||
------3-------3-------3-----3-----|------3-----3----0--------||
----2-----------2---2-----2---2-0-|----2-----2---0--0--------||
--0-------0-----------------------|-----------------0--------||
------------------4---------------|--3--------------2--------||
----------------------------------|--------------------------||




======================================================================
======================================================================

                                  Patiently


                                                                         Journey
Solo




  W                   W                   H        Q    S S S S
-------------------|-------------------|------------------------|
-------------------|-------------------|------------------------|
-------------------|-------------------|------------------5-7-9-|
-------------------|-------------------|------------------------|
-------------------|-------------------|------------------------|
-------------------|-------------------|------------------------|


  Q    S S S S Q    S S S S    Q    S T T E  S S S S S S E
----------------------------|--------------------------------|
----------------------------|--------------------------------|
--L----7-9-7-5-L----4-5-4-2-|--L----2-5-2----------4-5-7-7b--|
----------------------------|-------------3--3-5-7-----------|
----------------------------|--------------------------------|
----------------------------|--------------------------------|


  Q      S S    S S Q    S S S S     S E   S T  T T T E   T T S S S S S  S  S
----------------------------------|--------5-8p-5---5-8b--8-5---5-5-L-8----10b-|
---------8---------------------8b-|--L-8b---------8-----------8---------10-----|
--Lpb------7pbr-7-5-L----4-5------|--------------------------------------------|
-----------------------------7----|--------------------------------------------|
----------------------------------|--------------------------------------------|
----------------------------------|--------------------------------------------|


   Q       S  S   S  S S  S  E   S  E   T  T
---Lpb----10-12p-10----L---------------------|
--------------------13---10-13--10-13--10-13-|
---------------------------------------------|
---------------------------------------------|
---------------------------------------------|
---------------------------------------------|


   S  S  S  S  E   S  S Q    S  S  S  S
--12-10----10--L--12----L---------------|
--------13-----------13--------10-12-13-|
----------------------------------------|
----------------------------------------|
----------------------------------------|
----------------------------------------|


   Q     S   S   S   S  Q     S   S   S  S
--------------------------------------------|
---L----12h-13p-12p-10--L----10h-13p-10-13b-|
--------------------------------------------|
--------------------------------------------|
--------------------------------------------|
--------------------------------------------|


   S    T  T  T  T  S  T  T  T  T  T  T  T  T  T  T  T  T  T  T  T T  S  S  S  S
-------10-12-10----10------------------------------------------------------------|
---Lpb----------13----13-10----13------------------------------------------13-15-|
----------------------------12----12-14-12---------------------------12-14-------|
-------------------------------------------14-12-14-12-14-12-10------------------|
----------------------------------------------------------------12---------------|
---------------------------------------------------------------------------------|


   Q      S  E.      Q     S  S  S  S
---------15----------------------------|
--15b-------15pbr---13----12-13-12-12b-|
---------------------------------------|
---------------------------------------|
---------------------------------------|
---------------------------------------|


   S  E    S   Q      Q     S  S  S  S
----------------------------------------|
--12-12b--12b-12b----12b------13-15-15b-|
----------------------------------------|
----------------------------------------|
----------------------------------------|
----------------------------------------|


   Q       S  E.      Q     S  S  S  S      E    Q.
----------15------------------------15b-|--15b---Lpb------|
--15pb-------15pbr---13----12-13--------|-----------------|
---------------------------------14-----|-----------------|
----------------------------------------|-----------------|
----------------------------------------|-----------------|
----------------------------------------|-----------------|


   H          H           W                   W
---Lpb-----------------|-------------------|-------------------|
-----------------------|-------------------|-------------------|
-----------------------|-------------------|-------------------|
-----------------------|-------------------|-------------------|
-----------------------|-------------------|-------------------|
-----------------------|-------------------|-------------------|






Duration Legend
---------------
W - whole
H - half
Q - quarter
E - 8th
S - 16th
T - 32nd
X - 64th
. - note dotted
|-n-|  - n-tuplets


Tablature Legend
----------------
L - tied note
x - dead note
g - grace note
(n) - ghost note
> - accentuded note
NH - natural harmonic
AH - artificial harmonic
TH - tapped harmonic
SH - semi harmonic
PH - pitch harmonic
h - hammer on
p - pull off
b - bend
br - bendRelease
pb - preBend
pbr - preBendRelease
brb - bendReleaseBend
\n/ - tremolo bar dip
\n - tremolo bar dive
-/n - tremolo bar Release up
/n\ - tremolo bar inverted dip
/n - tremolo bar return
-\n - tremolo bar Release down
S - shift slide
s - legato slide
/ -  slide into from below or out of upwards
\ -  slide into from above or out of downwards
~ - vibrato
W - wide vibrato
tr - trill
TP - tremolo picking
T - tapping
S - slap
P - pop
< - fade in
^ - brush up
v - brush down





Comments


Popular Journey tabs & chords
Any Way You Want It 1 Bass Tabs
Separate Ways Chords
Stone In Love Chords
Don't Stop Believin' Drum Tabs
Be Good To Yourself Intro Tabs
Don't Be Down On Me Baby Tabs
Like A Sunshower Intro Tabs
Seperate Ways (Solo) Tabs
Suzanne Tabs
The Partys Over 1 Tabs


Song lyrics



↑ Back to top | Tablatures and chords are parodies/interpretations of the original songs. You may use it for private study, scholarship, research or language learning purposes only
© 2014 AZChords.com Contact us | Privacy policy | DMCA | Add/correct tabs | Request tabs | Top 50 tabs