» » »

Journey, Faithfully Tabs (ver.2)

Artists:  A B C D E F G H I J K L M N O P Q R S T U V W X Y Z # 

Faithfully Tabs (ver.2)

Journey Tabs
 Rating:
3.5/5 (8 votes)
Faithfully lessons Tabs too difficult? Try these video lessons and learn fast
                Ok... So there are cr*ppy versions of this song on here and there's one REALLY good (yet
complicated!) version as well! Well, I've decided to combine them and make this into
a little easier to play when going solo!

Remember: THIS IS AN ACOUSTIC, UNPLUGGED VERSION OF THE SONG! This is NOT a tab of
how the song is played!

I've tabbed this out to be picked with your fingers.

CAPO ON 2ND FRET!!!! <----- DON'T MISS THIS! IT'S IMPORTANT TO STAY IN KEY WITH THE SONG!

Faithfully - Journey

Intro:

For this riff, it's best when you play it this way: Use your middle, ring, and pinky
to play the D, G, and B strings IN THAT ORDER! That means middle finger goes on D, ring
goes on G, and pinky alternates the notes on B. That leaves your index finger to play 
bass notes on the low E string when needed!

  B                G#               F#               E
E|---------------------------------------------------------2---------|
B|--2--0--3--2--0h2--2--0--3--2--0h2--2--0--3--2--0h23--3--3---------|
G|--2--2--2--2--2----2--2--2--2--2----2--2--2--2--2--2--2------------|
D|-2-2--2--2--2-----2-2--2--2--2-----2-2--2--2--2-----0--0-----------|
A|0---0--0--0--0-----------------------------------------------------|
E|-----------------2---2--2--2--2---0---0--0--0--0-----2--2----------|

Verse Riff:

  B                G#               E               B
E|----------------------------------------2--------------------------------------------|
B|--2--0--3--2--0h2--2--0--3--2--0h23--3--3-----3-3---2--0--3--2--0h2--2--0--3--2--0h2-|
G|--2--2--2--2--2----2--2--2--2--2--2--2--------2-2---2--2--2--2--2----2--2--2--2--2---|
D|-2-2--2--2--2-----2-2--2--2--2-----0--0----------0-2-2--2--2--2-----2-2--2--2--2-----|
A|0---0--0--0--0------------------------------------0---0--0--0--0---0---0--0--0--0----|
E|-----------------2---2--2--2--2-----2--2-------2-------------------------------------|
  Highway run...

  B                G#               E               B      F#
E|----------------------------------------2--------------------------|
B|--2--0--3--2--0h2--2--0--3--2--0h23--3--3-----3-3---2--2----2--2---|
G|--2--2--2--2--2----2--2--2--2--2--2--2--------2-2---2--2----2--2---|
D|-2-2--2--2--2-----2-2--2--2--2----0--0-----------0-2-2-----2-2--2--|
A|0---0--0--0--0------------------------------------0---0-0----------|
E|-----------------2---2--2--2--2----2--2--------2---------20---0--0-|

Chorus:

  E       G#      B               E       G#      B
E|---2-------2-------0-------0-------2-------2-------0-------0-----|
B|3--3--3-2--2--2-2--2--2-2--2--2-3--3--3-2--2--2-2--2--2-2--2--2--|
G|2-----2-2-----2-2-----2-2-----2-2-----2-2-----2-2-----2-2-----2--|
D|-0--0----4--4----2--2----2--2----0--0----4--4----2--2----2--2----|
A|------------------0--0-0--0--0-0------------------0--0-0--0--0-0-|
E|--2--2-2--2--2-2------------------2--2-2--2--2-2-----------------|
  They say that the road...

  F#      Ebm     F#              C#m             E
E|---0-------4-------0-------0-------2-------2-------5----5-------------|
B|0--0--0-5--5--5-0--0--0-0--0--0-3--3--3-3--3--3-7--7--7(7)------ <----| Note
G|1-----1-6-----6-1-----1-1-----1-4-----4-4-----4-7-----7---------------|  in ( ) is
D|-2--2----6--6----2--2----2--2----4--4----4--4----7--7-----------------|  optional
A|----------4--4--------------------2--2-2--2--2-2--5--5-5--------------|
E|--0--0-0----------0--0-0--0--0-0--------------------------------------|

Intro

Verse

Chorus

Outro (Basically the Intro Riff without the pause at the end):

  B                G#               F#               E
E|------------------------------------------------------2-----2-------|
B|--2--0--3--2--0h2--2--0--3--2--0h2--2--0--3--2--0h23--3--3--3--3-3--|
G|--2--2--2--2--2----2--2--2--2--2----2--2--2--2--2--2-----2-----2-2--|
D|-2-2--2--2--2-----2-2--2--2--2-----2-2--2--2--2-----0--0--0--0----0-|
A|0---0--0--0--0------------------------------------------------------|
E|-----------------2---2--2--2--2---0---0--0--0--0-----2--2--2--2-2---|

And end with:

  B                G#               F#               E
E|---------------------------------------------------2---------------|
B|--2--0--3--2--0h2--2--0--3--2--0h2--2--0--3--2--0h23---------------|
G|--2--2--2--2--2----2--2--2--2--2----2--2--2--2--2--2---------------|
D|-2-2--2--2--2-----2-2--2--2--2-----2-2--2--2--2----0---------------|
A|0---0--0--0--0-------------------------------------0---------------|
E|-----------------2---2--2--2--2---0---0--0--0--0---2---------------|

Lyrics:

Verse 1:

Highway run
Into the midnight sun
Wheels go round and round
You're on my mind
Restless hearts
Sleep alone tonight
Sendin' all my love
Along the wire

Chorus:

They say that the road
Ain't no place to start a family
Right down the line
Its been you and me
And lovin' a music man
Ain't always what its supposed to be
Oh girl you stand by me
I'm forever yours...faithfully

Verse 2:

Circus life
Under the big top world
We all need the clowns
To make us smile
Through space and time
Always another show
Wondering where I am
Lost without you

Chorus:

And being apart ain't easy
On this love affair
Two strangers learn to fall in love again
I get the joy
Of rediscovering you
Oh girl, you stand by me
I'm forever yours...faithfully

Outro:

Oh, oh, oh, oh
Faithfully, Im still yours
Im forever yours
Ever yours...faithfully
            
Submit corrections

comments powered by Disqus
↑ Back to top | Journey Tabs for Faithfully. Lyrics for acoustic guitar and electric guitar. Tablatures and chords are parodies/interpretations of the original songs. You may use it for private study, scholarship, research or language learning purposes only