» » »

Johnny Cash, I Walk The Line Tabs (ver.2)

Artists:  A B C D E F G H I J K L M N O P Q R S T U V W X Y Z # 

I Walk The Line Tabs (ver.2)

Johnny Cash Tabs
 Rating:
4/5 (4 votes)
I Walk The Line lessons Tabs too difficult? Try these video lessons and learn fast
                |----------------------------|
|----------------------------|
|----------------------------|
|----------------------------|
|--------------0-------0---0-|
|--0---1---3-------0---------|


|----------------------------|
|----------------------------|
|----------------------------|
|----------0-------0---0-----|
|--1---3-------0-------------|
|----------------------------|

|----------------------------|
|----------------------------|
|----------------------------|
|----------------------------|
|--3---1---0-------0---0-----|
|--------------0-------------|

|----------------------------|
|----------------------------|
|----------------------------|
|----------------------------|
|----------------------------|
|--3---1---0-----------------|

This is just the introduction before he starts singing...I picked this up on my own while listening to the song...any corrections/suggestions woudl be appreciated.  And this all goes together..listen to the song to get the rhythm, because as you can see i spaced them out evenly and not with the songs rhythm.
            
Submit corrections

comments powered by Disqus
↑ Back to top | Johnny Cash Tabs for I Walk The Line. Lyrics for acoustic guitar and electric guitar. Tablatures and chords are parodies/interpretations of the original songs. You may use it for private study, scholarship, research or language learning purposes only