» » »

Johnny Cash, Gods Gonna Cut You Down Tabs (ver.1)

Artists:  A B C D E F G H I J K L M N O P Q R S T U V W X Y Z # 

Gods Gonna Cut You Down Tabs (ver.1)

Johnny Cash Tabs
 Rating:
4/5 (4 votes)
Gods Gonna Cut You Down lessons Tabs too difficult? Try these video lessons and learn fast
1
                 This is a way of finger-picking the song, using the chords provided by others.Capo 1st, 
everything shown is relative of course.


   VERSE
e|--------Am--------------|
B|-------1-----1----------|
G|----------2-------------|
D|-------2---2------------|
A|---0--------------------|
E|------------------------|
    CHORUS
e|-----C---------Dm----------Em-------Am--------------|
B|----1---------3----------0--------1-----------------|
G|------0---------2----------0---------2--------------|
D|--------2----0----0----------2----2----2------------|
A|----3--------------------2--------------------------|
E|----------------------------------------------------|

e|----------------------------------------------------|
B|----1---------3----------0--------1-----------------|
G|------0---------2----------0------------------------|
D|--------2----0----0----------2----2-----------------|
A|----3--------------------2--------------------------|
E|----------------------------------------------------|
            
Submit corrections

comments powered by Disqus
↑ Back to top | Johnny Cash Tabs for Gods Gonna Cut You Down. Lyrics for acoustic guitar and electric guitar. 1 Tablatures and chords are parodies/interpretations of the original songs. You may use it for private study, scholarship, research or language learning purposes only