» » »

Johnny Cash, Get Tabs (ver.1)

Artists:  A B C D E F G H I J K L M N O P Q R S T U V W X Y Z # 

Get Tabs (ver.1)

Johnny Cash Tabs
Rating:
0/5 (0 votes)
Get lessons Tabs too difficult? Try these video lessons and learn fast
                (Rhythm)
GET RHYTHM
Recorded by: Joaquin Phoenix
Capo: 1st Fret 

(E) Hey GET RHYTHM when you get the blues
Hey get (A) rhythm when you get the (E) blues
Yes a jumpy rhythm makes you feel so fine
it'll shake all the trouble from your worried mind
Get (A) rhythm when (B7) you get the (E) blues

(E)
Little shoeshine boy never gets low down
but he's got the dirtiest job in town
bendin' low at the peoples' feet
on the windy corner of the dirty street
well I asked him while he shined my shoes
how'd he keep from gettin' the blues
he grinned as he raised his little head
popped a shoeshine rag and then he said

(E)GET RHYTHM when you get the blues
Hey get (A) rhythm when you get the (E) blues
it only costs a dime just a nickel a shoe
does a million dollars worth of good for you
Get (A) rhythm when (B7) you get the (E) blues

(E)
Well I sat down to listen to the shoeshine boy
and I thought I was gonna jump for joy
slapped on the shoe polish left and right
he took a shoeshine rag and he held it tight
he stopped once to wipe the sweat away
I said you're a mighty little boy to be-a workin' that way
he said I like it with a big wide grin
kept on a poppin' and he said again

(E)GET RHYTHM when you get the blues
Hey get (A) rhythm when you get the (E) blues
get a rock n roll feelin' in your bones
get taps on your toes and get gone
Get (A) rhythm when (B7) you get the (E) blues

SOLO:
 [E]
E--------12-12----------|
B-----12-------12-------| 
G--13-------------------|
D-----------------------|  (4X)
A-----------------------|
E-----------------------|
 [A]
E------5-5--------------|
B----5-----5------------|
G--6--------------------|
D-----------------------|  (4X)
A-----------------------|
E-----------------------|

 [E]
e---------------------------------------------------|  
B---------------------------------------------------|
G---------------------------------------------------|
D--2-2-2---2-2-2-2---2-2---2-2---2-2---2-2---2-2-4--|
A--------4---------4-----4-----4-----4-----4--------|
E---------------------------------------------------|


 [A]				[B7]	 [E]
e---------------------------------------------------------|  
B---------------------------------------------------------|
G---------------------------------------------------------|
D-2-2-2-4-2-2-2-4-2-2-2-4-2-2-2-4-4-5-4-4-2---------------|
A-------------------------------------------4-4-2-2-------|
E---------------------------------------------------4-4-0-|
            
Submit corrections

comments powered by Disqus
↑ Back to top | Johnny Cash Tabs for Get. Lyrics for acoustic guitar and electric guitar. Tablatures and chords are parodies/interpretations of the original songs. You may use it for private study, scholarship, research or language learning purposes only