» » »

John Mayer, Come Back To Bed Tabs (ver.1)

Artists:  A B C D E F G H I J K L M N O P Q R S T U V W X Y Z # 

Come Back To Bed Tabs (ver.1)

John Mayer Tabs
Rating:
0/5 (0 votes)
Come Back To Bed lessons Tabs too difficult? Try these video lessons and learn fast
                
intro (x2)

E------------9-------5--------------
B------------10------7--------------
G----9-------9-------7--------------
D----9-------11------7--------------
A----11------9-------5--------------
E------------x-------x--------------

acoustic intro (x2)

E----------------------------------9--------------5--------------
B---------------------------------10--------------7--------------
G----9-------9-------9------9------9--------------7--------------
D----9-------9h11----9------9-----11--------------7--------------
A----9h11----9-------9h11---9------9--------------5--------------
E----------------------------------x--------------x--------------


Verse
"Still is the life..."

E----0---------0---------0---------------------------------------
B----5---------3---------10--------------------------------------
G----6---------4---------11---------2----------------------------
D----7---------5---------12---------3----------------------------
A----x---------x---------x----------x----------------------------
E----5---------3---------10---------3----------------------------



Pre-Chorus (Repeat 3 times w/ a end progression)
"You can be mad in the morning..."

E------------9-------5--------------
B------------10------7--------------
G----9-------9-------7--------------
D----9-------11------7--------------
A----9h11----9-------5--------------
E------------x-------x--------------

I believe the end is a power chord Progression of E  F#m  C#m  D   E with the last E chord falling on the words "Come back to.." and the beginning of the chorus on A chord for the chorus on "...bed" so it looks like 

E          F#m            C#m
Just don't leave me alone here

     D           E            A
It's cold, baby  come back to bed



Chorus (repeat several times)
"Come back to bed..."

E----0-------------0------------
B----5-------------3------------
G----6-------------2------------
D----7-------------0------------
A----x-------------x------------
E----5-------------2------------

Acoustic Chorus (repeat)
E----0-------0---0---------0-------
B----5-------5---5---------3-------
G----6-------7---6---------2-------
D----7-------7---7---------0-------
A----x-------x---x---------x-------
E----5-------5---5---------2-------
            

comments powered by Disqus
↑ Back to top | John Mayer Tabs for Come Back To Bed. Lyrics for acoustic guitar and electric guitar. Tablatures and chords are parodies/interpretations of the original songs. You may use it for private study, scholarship, research or language learning purposes only