>
 >
Come Back To Bed 1

Come Back To Bed 1 Guitar Tabs

John Mayer - Come Back To Bed 1 chords, tabs, tablatures, lyrics

Guitar lessons | Add/correct | Request | Top 50 tabs Artists:  A B C D E F G H I J K L M N O P Q R S T U V W X Y Z 0-9

Come Back To Bed 1 Guitar Tabs – John Mayer

CD, Sheet music, Poster

Do you like Come Back To Bed 1? Share with your friends now
ChordsChords v2TabsTabs v2Ukulele
_______________________________________________________________________
Key:
b- Bend (ex. 12b14 = bend on 12th fret so it sounds like the note on the 14th fret)
br – Bend and Release (ex. 12br14 = bend on 12th fret so it sounds like the note on the 14th fret, and then release the bend until it sounds like the original note on the 12th fret)
/ - Slide
h- hammer on
p- pull off
~- let ring

Chords  
   F#m7  C#m7    D           Dsus2/F#
E--9----|-9----|-5---------|-0----------------------------------
B--10---|-9----|-7-----10--|-3----------------------------------
G--9----|-9----|-7--or-11--|-2----------------------------------
D--11---|-9----|-7-----12--|-0----------------------------------
A--9----|-x----|-5-----12--|-x----------------------------------
E—------|-9----|-------10--|-2----------------------------------_______________________________________________________________________

Here’s what I have. I guess all I suggest is to listen to the tune and figure out the strumming pattern.

Intro-
                        F#m7   D
E-----------------------9------5--------------------------
B-----------------------10-----7--------------------------
G-9~----9----9----9-----9------7-------------------------- X2
D-9~----9h11-9----9-----11-----7--------------------------
A-9h11~-9----9h11-9-----9------5--------------------------
E---------------------------------------------------------

Verse- “Still is the life…”
  A     G          D        Gm9         (On 4th time play this once)
E-0-----0--0-------0-------------------|-0---0-0-----0-----0---
B-5-----3—-5p3-----10------------------|-5---3-5p3---10----12--
G-6-----4—-4-------11-------2—------x3-|-6---4-4-----11----13—- 
D-7-----5--5-------12-------3----------|-7---5-5-----12----14--
A-x-----x--x-------x--------x----------|-x---x-x-----x-----x---
E-5-----3--3-------10-------3----------|-5---3-3-----10----12--

Pre-Chorus    |“You can be mad in the morning…”
              | F#m7   D
E-------------|-9------5-----------------------------------
B-------------|-10-----7-----------------------------------
G-9-----9-----|-9------7------9-----9---------------------- X2
D-9-----9-----|-11-----7------9-----9----------------------
A-9h11—-9h11--|-9------5------9h11—-9h11-------------------
E-------------|--------------------------------------------

             F#m7    C#m7              D
“Just don’t leave me alone here, it’s cold baby”

Chorus – “Come Back To Bed”
  E        A             Dsus2/F#
E-0------|-0-----0-------0------------|-0-----0------------
B-0------|-5-----5-------3------------|-5-----5------------
G-1------|-6-----7p6-----2----------X3|-6-----7p6---2------
D-2------|-7-----7-------0------------|-7-----7-----3------
A-2------|-x-----x-------x------------|-x-----x-----x------
E-0------|-5-----5-------2------------|-5-----5-----3------

Verse – “And what will this fix?…”
  A     G          D        Gm9         (On 2nd time play this once)
E-0-----0--0-------0-------------------|-0---0-0-----0-----0---
B-5-----3—-5p3-----10------------------|-5---3-5p3---10----12--
G-6-----4—-4-------11-------2—------x1-|-6---4-4-----11----13--
D-7-----5--5-------12-------3----------|-7---5-5-----12----14--
A-x-----x--x-------x--------x----------|-x---x-x-----x-----x---
E-5-----3--3-------10-------3----------|-5---3-3-----10----12--

Pre-Chorus    |“You can be mad in the morning…”
              | F#m7   D
E-------------|-9------5-----------------------------------
B-------------|-10-----7-----------------------------------
G-9-----9-----|-9------7------9-----9---------------------- X2
D-9-----9-----|-11-----7------9-----9----------------------
A-9h11—-9h11--|-9------5------9h11—-9h11-------------------
E-------------|--------------------------------------------

             F#m7    C#m7              D
“Just don’t leave me alone here, it’s cold baby”

Chorus – “Come Back To Bed”
  E        A             Dsus2/F#
E-0------|-0-----0-------0---------------------------------
B-0------|-5-----5-------3---------------------------------
G-1------|-6-----7p6-----2--------------------------------- X4
D-2------|-7-----7-------0---------------------------------
A-2------|-x-----x-------x---------------------------------
E-0------|-5-----5-------2---------------------------------

Solo
E-----------------------------------------------2~---------------7~----
B-12b14~-----------12b14~-----5~----12b14~-----------12b14~---5--------
G----------2—4~------------2-----------------2-------------------------
D----------------------------------------------------------------------
A----------------------------------------------------------------------
E----------------------------------------------------------------------

E----------------------------------------------------------------------
B----10-----10-----10-----10-----10-----10-----8-----8-----8-----8-----
G-13-----13-----13-----13-----13-----13-----11----11----11----11-------
D----------------------------------------------------------------------
A----------------------------------------------------------------------
E----------------------------------------------------------------------

E---------------0-----0---0---0----------------------------------------
B----8------------3----3---3---3-------------------------10—12b14~-----
G-11----11--------------------------4/5--4--2--4/5—--4/11--------------
D----------------------------------------------------------------------
A----------------------------------------------------------------------
E----------------------------------------------------------------------

E----------------------------------------------------------------------
B------10-13b15~-------10-12br14-10-----10-12—12br14-10—12br14---------
G-9/11------------9/11---------------11--------------------------------
D----------------------------------------------------------------------
A----------------------------------------------------------------------
E----------------------------------------------------------------------

E-------12-14----------------------------------------------------------
B-12b14--------12br14p10--12~------------------------------------------
G----------------------------------------------------------------------
D----------------------------------------------------------------------
A----------------------------------------------------------------------
E----------------------------------------------------------------------

Pre-Chorus - “You can be mad in the morning…”
  F#m7    D
E-9-------5-------------------------------------------
B-10------7-------------------------------------------
G-9-------7------9-----9------------------------------ X2
D-11------7------9-----9------------------------------
A-9-------5------9h11—-9h11---------------------------
E-----------------------------------------------------

                    F#m7      C#m7                  D
“But don’t leave me 98 and 6 degrees of seperation from you, baby”

Chorus – “Come Back To Bed”
  E        A             Dsus2/F#
E-0------|-0-----0-------0--------------------------
B-0------|-5-----5-------3--------------------------
G-1------|-6-----7p6-----2-------------------------- repeat till fade
D-2------|-7-----7-------0--------------------------
A-2------|-x-----x-------x--------------------------
E-0------|-5-----5-------2--------------------------





Comments


Popular John Mayer tabs & chords
3x5 Chords
Call Me The Breeze Chords
Gravity 1 Chords
Say What You Need To Say Chords
Your Body Is A Wonderland 1 Chords
Your Body Is A Wonderland 2 Chords
Half Of My Heart 2 Tabs
Hurt Tabs
Tracing Tabs
Something Like Olivia 2 Ukulele


Song lyrics



↑ Back to top | Tablatures and chords are parodies/interpretations of the original songs. You may use it for private study, scholarship, research or language learning purposes only
© 2014 AZChords.com Contact us | Privacy policy | DMCA | Add/correct tabs | Request tabs | Top 50 tabs