» » »

Belief Tabs (ver.1)

Artists:  A B C D E F G H I J K L M N O P Q R S T U V W X Y Z # 

Belief Tabs (ver.1)

John Mayer
Rating:
2.3/5 (56 votes)
Tabs too difficult? Try these video lessons and learn fast.
                
Hi guys - I felt the other solos were mostly right, but her are my tweaks enjoy!

E|--------------------------------------|
b|---13/15~~~~--------------------------|
g|-------------14\12-14\12~~~~-p10-~~~~-|
d|--------------------------------------|
a|--------------------------------------|
e|--------------------------------------|

---------------------------------------------|
-----10-13h10--------------------------------|
12b14---------12b14-12-10--------------------|
-------------------------12------------------|
----------------------------12\10---10~~~~---|
---------------------------------------------|
                             ^grace slide

---------------------------------------------|
---------------------------------------------|
-------------------------10~~----------------|
----------------------10----12~~p10----------|
------8-10-8-10/12-10------------------------|
---------------------------------------------|

-----------------------------------------------------|
-----------------------------------------------------|
-5/7-5/7-5/7~~--p5-----------------------------------|
-----------------h7\5p3------3/5-3/5-3/5~~/6\5~~p3~~-|
----------------------h5-----------------------------|
-----------------------------------------------------|

------------------------|
---12/13-12/13-12/13--\-|
---13/14-13/14-13/14--\-|
------------------------|
------------------------|
------------------------|
                                `                            or
----------------------------------------------10-13b----(10h8--10)----|
---------------------------------------/10-13------------15h13-15~~~~~|
------------10-12b13-12-10h12-10-12-----------------------------------|
------10-12-----------------------------------------------------------|
--/12-----------------------------------------------------------------|
----------------------------------------------------------------------|
                                                  ^slight bend

This is a great song to play along to once you get it right, I love john mayer - I hope 
shares my enthusiam!

Steve
            
Tabs too difficult? Try these video lessons and learn fast.


comments powered by Disqus
↑ Back to top | Tablatures and chords are parodies/interpretations of the original songs. You may use it for private study, scholarship, research or language learning purposes only