» » »

John Mayer, Belief Tabs (ver.2)

Artists:  A B C D E F G H I J K L M N O P Q R S T U V W X Y Z # 

Belief Tabs (ver.2)

John Mayer Tabs
Rating:
4/5 (8 votes)
Belief lessons Tabs too difficult? Try these video lessons and learn fast
                -------------------------------------------------------------------------------
-------------------------------------------------------------------------------

First tab etc, took me a while. I was dying for this song so I worked it out from the 
and Webster Hall concert. There are two guitars and a base but this is the guts of it. 
good I think. Feedback please!! Will try and add more.

Tuning:

Intro & Verse
e|---------x----------------------------------x------------------------------|
B|---------x----------------------------------x------------------------------|
G|---------x------10----10\9-9----------------x-----7---7\5-5----------------|
D|---------x----------------------------------x------------------------------|
A|---------x-/12-----12-----------------------x-/8----8----------------------|
E|--/10-10-x----------------------------/3--3-x------------------------------|
     T  T                                T  T
e|---------x---------------------------------x-------------------------------|
B|---------x---------------------------------x-------------------------------|
G|---------x-----3---3\2-2-------------------x------10----10/12-12-----------|
D|---------x---------------------------------x-------------------------------|
A|--/3-3---x-/5----5-------------------------x-/12-----12--------------------|
E|---------x--------------------------/10-10-x-------------------------------|
     T T                               T  T

Pre-Chorus
e|---------------------------------------------------------------------------|
B|--------------11----11\10-10----------------10----10\8-8-------------------|
G|---------------------------------------------------------------------------|
D|---------/12-----12--------------------/10-----10--------------------------|
A|-------------------------------3-3-----------------------------------------|
E|---3-3---------------------------------------------------------------------|

e|---------------------------------------------------------------------------|
B|------------8---8\6-6----------------------6---6\5-5-----------------------|
G|---------------------------------------------------------------------------|
D|---------8----8-------------------------7----7-----------------------------|
A|-------------------------------1-1-----------------------------------------|
E|---1-1---------------------------------------------------------------------|


| /  slide up
| \  slide down
| h  hammer-on
| p  pull-off
| ~  vibrato
| +  harmonic
| x  Mute note
===============================================================================
            
Submit corrections

comments powered by Disqus
↑ Back to top | John Mayer Tabs for Belief. Lyrics for acoustic guitar and electric guitar. Tablatures and chords are parodies/interpretations of the original songs. You may use it for private study, scholarship, research or language learning purposes only