>
 >
Belief Live

Belief Live Guitar Tabs

John Mayer - Belief Live chords, tabs, tablatures, lyrics

Guitar lessons | Add/correct | Request | Top 50 tabs Artists:  A B C D E F G H I J K L M N O P Q R S T U V W X Y Z 0-9

Belief Live Guitar Tabs – John Mayer

CD, Sheet music, Poster

Do you like Belief Live? Share with your friends now
Tabs
Belief (live at Abbey Road)

Standard Tuning EADGBe


Drum intro then

Guitar 1 (repeated in all the verses)
e|--------------------------------------------------------------------|
B|--------------------------------------------------------------------|
G|-------------10----10---9----9---------------7---7--5---5-----------|
D|--------------------------------------------------------------------|
A|---------/12----12------10---10-----------/8---8----7---7-----------|
E|--10-10------------------------------3-3----------------------------|

e|--------------------------------------------------------------------|
B|--------------------------------------------------------------------|
G|----------3---3--2--2-------------------10----10-------12~----------|
D|--------------------------------------------------------------------|
A|--3-3--/5---5----3--3---------------/12----12------/14--------------|
E|-----------------------------10-10----------------------------------|
x2 (x2 extra for the intro)

Then (x2)
e|--------------------------------------------------------------------|
B|-----------11----11--10--10---------------10----10---8--8-----------|
G|--------------------------------------------------------------------|
D|-------/12----12-----10--10-----------/10----10------8--8-----------|
A|---------------------------------3-3--------------------------------|
E|--3-3---------------------------------------------------------------|

e|--------------------------------------------------------------------|
B|---------8---8--6--6--------------6----6---5--3~--------------------|
G|--------------------------------------------------------------------|
D|------/8---8----7--7-----------/7----7------------------------------|
A|--------------------------1-1---------------------------------------|
E|--1-1---------------------------------------------------------------|

And back to verse again
However in second verse a second guitar comes in playing:

Second guitar
e|---------------------------------------|
B|---13---10-x-x-x-10-x-x-x-10-x-x-x-10--|
G|---14---10-x-x-x-10-x-x-x-10-x-x-x-10--|
D|---------------------------------------|
A|---------------------------------------|
E|---------------------------------------|
at every change of bass note.

Chorus (I think since itís a little hard to hear)x4
e|--------------------------------------------------------------------|
B|--------------------------------------------------------------------|
G|--------------------------------------------------------------------|
D|----------------15--------14-----------12p10-----10h12--------------|
A|-----12----/12--------/10----------10---------12--------------------|
E|--10----------------------------12----------------------------------|

And then back to verse again with a little solo from guitar three

Guitar 3
e|--------------------------------------------------------------------|
B|--/15-----/10~----/13~-------------10-------------------------------|
G|--------------------------/12~--------10--/9----/12-/10--/5--/7~----|
D|--------------------------------------------------------------------|
A|--------------------------------------------------------------------|
E|--------------------------------------------------------------------|

e|-10/---/23-21~------------------------------------------------------|
B|-------------------15/17-15~----------------------------------------|
G|-------------------------------14/12--10----------------------------|
D|-----------------17-----------15-----------10~-----/12--------------|
A|---------------------------------------------------------8----------|
E|------------------------------------------------------------10-8-10-|

Solo
Guitar 1
e|--------------------------------------------------------------------|
B|------------------------13b~-----13-10-----10-----------------------|
G|---------------9b-9b~------------------12b----12b-12p10----10--12---|
D|---------10-12------------------------------------------12----------|
A|---12-12------------------------------------------------------------|
E|--------------------------------------------------------------------|

e|--13b-13b-13~--12-10------------------------------------------------|
B|------13b--------------13-10-13-------------------------------------|
G|---------------------------------12b-12b-12p10-10h12-10-------------|
D|---------------------------------------------------------12p10------|
A|--------------------------------------------------------------------|
E|--------------------------------------------------------------------|

e|--------------------------------------------------------------------|
B|--------------------------------------------------------------------|
G|--------------------------------------------------------------------|
D|-10/12-10/12-10/12---10---------------------------------------------|
A|-------------------------12/10p8---------8h10-8h10-8h10~---8--------|
E|---------------------------------10-8-------------------------------|

e|--------------------------------------------------------------------|
B|--/13-13-13/--------------------------------------------------------|
G|--/14-14-14/---------------10-12b--12--10-12-10---------------------|
D|---------------------10-12-----------------------12-10--------------|
A|------------------12------------------------------------------------|
E|--------------------------------------------------------------------|

e|--13b-13--10--------------------------------------------------------|
B|-------------13-10--------------------------------------------------|
G|-------------------12b-12br12p10----10~-----------------------------|
D|---------------------------------12----------10h12~--let-ring-------|
A|--------------------------------------------------------------------|
E|--------------------------------------------------------------------|

Then is a little breakdown I think which goes a little something like this

Guitar 2 plays:
e|--------------------------------------------------------------------|
B|-----x10-10-10-10-10-10-x-8--8--8--8--8--8--x-13-13-13-13-13-13-----|
G|-----x10-10-10-10-10-10-x-9--9--9--9--9--9--x-12-12-12-12-12-12-----|
D|-----x12-12-12-12-12-12-x-10-10-10-10-10-10-x-12-12-12-12-12-12-----|
A|--------------------------------------------------------------------|
E|-10~----------------------------------------------------------------|

e|--------------------------------------------------------------------|
B|-----x10-10-10-10-10-10-x-8--8--8--8--8--8--x-6-6-6-6-6-6-----------|
G|-----x10-10-10-10-10-10-x-9--9--9--9--9--9--x-7-7-7-7-7-7-----------|
D|-----x12-12-12-12-12-12-x-10-10-10-10-10-10-x-7-7-7-7-7-7-----------|
A|--------------------------------------------------------------------|
E|-10~----------------------------------------------------------------|
Which is repeated throughout the breakdown

WHILE guitar 1 plays:

Guitar 1 (mute most of these)
e|--------------------------------------------------------------------|
B|--------------------------------------------------------------------|
G|--------------------------------------------------------------------|
D|--------------------------------------------------------------------|
A|------------------------------------------10---10------10------10---|
E|---------------------------------------------------12------12~---12-|

e|--------------------------------------------------------------------|
B|--------------------------------------------------------------------|
G|--------------------------------------------------------------------|
D|--------------------------------------------------------------------|
A|---------------10----10-10----10----10------------------------------|
E|-10~-----------------------12----12----12ó10~----/------------------|

e|--------------------------------------------------------------------|
B|--------------------------------------------------------------------|
G|--------------------------------------------------------------------|
D|----------10-x-10óx-10----------x-10-x-x-10-x-x-10-x-x-10-x-x-10-x-x|
A|--10----------------------------------------------------------------|
E|-----------------------10~------------------------------------------|

e|--------------------------------------------------------------------|
B|--------------------------------------------------------------------|
G|--------------------------------------------------------------------|
D|-10-x-10-x-10~--12-----ad lib with more x 10ís------------thennn----|
A|--------------------------------------------------------------------|
E|--------------------------------------------------------------------|

e|--x-x-x-10-x-x-x-10-x-x-x-10-x-x-x-10-------------------------------|
B|--x-x-x-10-x-x-x-10-x-x-x-10-x-x-x-10-------------------------------|
G|--x-x-x-10-x-x-x-10-x-x-x-10-x-x-x-10-------------------------------|
D|------------------------------------------ad lib again-------thenn--|
A|--------------------------------------------------------------------|
E|--------------------------------------------------------------------|

e|--------------------------------------------------------------------|
B|--------------------------------------------------------------------|
G|--------------------------------------------------------------------|
D|-10-x-10-x-10----10-x-10-x-10-x------ad lib with this riff-----thenn|
A|--------------12----------------12----------------------------------|
E|--------------------------------------------------------------------|

e|--------------------------------------------------------------------|
B|-------------------------------------------------13-----------13----|
G|--------------------------------------------------------------------|
D|---10-x-10-x-10-x----10----10-12--14-14-12-10-12----14--14-12-------|
A|------------------12----12------------------------------------------|
E|--------------------------------------------------------------------|

e|---------------------------------------------10-----10-12~---10-----|
B|-------------13------------15------------13b----13b-----------------|
G|--------------------------------------------------------------------|
D|---14--14-12-----14--14-12----14--14-12-----------------------------|
A|--------------------------------------------------------------------|
E|--------------------------------------------------------------------|

e|-----------10-------------------------------------------------------|
B|-13-10-13b----------------------------------------------------------|
G|--------------12b-12br12p10------12b-12br12p10----12b--12--10-------|
D|----------------------------12-----------------12--------------12p10|
A|--------------------------------------------------------------------|
E|--------------------------------------------------------------------|

e|-----------14b~--10-10~-13---13b--10-10----10h13p10----13b--13------|
B|-x-x-x-x--------------------------------13----------13--------------|
G|-x-x-x-x------------------------------------------------------------|
D|--------------------------------------------------------------------|
A|--------------------------------------------------------------------|
E|--------------------------------------------------------------------|

e|--10----13p10----13p10----13p10----13p10----13p10----13p10-----13p10|
B|-----13-------13-------13-------13-------13-------13-------13-------|
G|--------------------------------------------------------------------|
D|--------------------------------------------------------------------|
A|--------------------------------------------------------------------|
E|--------------------------------------------------------------------|

e|----13p10-----10-10-10----------------------------------------------|
B|-13-------13--13-13-13----------------------------------------------|
G|--------------------------------------------------------------------|
D|--------------------------------------------------------------------|
A|--------------------------------------------------------------------|
E|--------------------------------------------------------------------|

Weew that was intense :)
Anyways, then back to the chorus which continues til then end with guitar 3 soloing 
im sorry to say I havenít tabbed.
BUT there is another guitar solo at the end which I have tabbed :)

Guitar 1
e|--------------------------------------------------------------------|
B|--------------------------------------------------------------------|
G|---------------10----------------------------12b14br12p10-----------|
D|--10-10-10-12-----12p10-----10----10-10-12----------------12-10-----|
A|------------------------12-----12-----------------------------------|
E|--------------------------------------------------------------------|

e|--------------------------------------------------------------------|
B|--------------------------------------------------------------------|
G|-----------------10----------12b14br12p10-12-x-12-12-10-------------|
D|-10-------10-12-----12p10--------------------------------12p10------|
A|----12-12-----------------12----------------------------------------|
E|--------------------------------------------------------------------|

e|-----------------------------------------10-10----------------------|
B|-----------------------------------------10-10ó13b-13~--------------|
G|-12b-12b-12b14br12p10----------------12b---------------12b-12b-10---|
D|----------------------12-10---------------------------------------12|
A|----------------------------12-10-----------------------------------|
E|--------------------------------------------------------------------|

e|--------------------------------------------------------------------|
B|--------------------------------------------------------------------|
G|-10~-12ó12b-12~--12-10---------------------------x-x-x--------------|
D|-----------------------12-10---------------------x-x-x-----15-15~---|
A|------------------------------12-10-8~-------12--x-x-x--12----------|
E|------------------------------------------10------------------------|

e|--------------------------------------------------------------------|
B|--------------------------------------------------------------------|
G|-x-x-x------------x-x-x---------------------------------------------|
D|-x-x-x-----14-14~-x-x-x---------------------------------------------|
A|-x-x-x--10--------x-x-x-----10---12-12-10~--------------------------|
E|-------------------------8------------------10-10-10~/--------------|

And that is that. Im not a hundred percent sure about the ending solo, BUT everything 
is pretty decent im sure. Sorry again for the ad libbing I told you guys to do, but thatís 
much all it is there. Anyways ENJOY, and hope you like it :)





Comments


Popular John Mayer tabs & chords
Come Back To Bed 1 Chords
Love Song For No One 2 Chords
3x5 Tabs
Age Of Worry 1 Tabs
Comfortable 1 Tabs
Gravity Live Tabs
Lesson Learned Tabs
Vultures Acoustic Intro Tabs
Why Did You Mess With Forever Tabs
Tracing Ukulele


Song lyrics



↑ Back to top | Tablatures and chords are parodies/interpretations of the original songs. You may use it for private study, scholarship, research or language learning purposes only
© 2014 AZChords.com Contact us | Privacy policy | DMCA | Add/correct tabs | Request tabs | Top 50 tabs