>
 >
Minuet In G 1

Minuet In G 1 Guitar Tabs

Johann Sebastian Bach - Minuet In G 1 chords, tabs, tablatures, lyrics

Guitar lessons | Add/correct | Request | Top 50 tabs Artists:  A B C D E F G H I J K L M N O P Q R S T U V W X Y Z 0-9

Minuet In G 1 Guitar Tabs – Johann Sebastian Bach

CD, Sheet music, Poster

Do you like Minuet In G 1? Share with your friends now
TabsTabs v2Tabs v3Tabs v4Tabs v5
Minuet in G
Johann Sebastian Bach


  Q=120, 3/4 time.


   Q    E  E  E  E     Q     Q     Q       Q    E  E  E  E     Q     Q     Q
|--------------------|-------------------|-0----------0--2---|-3-----------------|
|--3----------0--1---|-3-----------------|------1--3---------|-------------------|
|o------0--2---------|-------0-----0-----|-------------------|-------0-----0-----|
|o-------------------|-------------------|-------------------|-------------------|
|-------------0------|-2-----------------|-3-----------------|-2-----------------|
|--3-----------------|-------------------|-------------------|-------------------|
   H          Q        H.                  H.                  H.


   Q    E  E  E  E     Q    E  E  E  E     Q    E  E  E  E     H.
|--------------------|-------------------|-------------------|-------------------|
|--1----3--1--0------|-0----1--0---------|------------0------|-------------------|
|----------------2---|------------2--0---|------0--2-----0---|-2-----------------|
|--------------------|-------------------|-4-----------------|-0----0------------|
|--0-----------------|-------------------|-5----2------------|---------3--2--0---|
|--------------------|-3-----------------|------------3------|-------------------|
   H.                  H.                  Q    Q     Q        Q    E  E  E  E


   Q    E  E  E  E     Q     Q     Q       Q    E  E  E  E     Q     Q     Q
|--------------------|-------------------|-0----------0--2---|-3-----------------|
|--3----------0--1---|-3-----------------|------1--3---------|-------------------|
|-------0--2---------|-------0-----0-----|-------------------|-------0-----0-----|
|--------------------|-------------------|-------------------|-------------------|
|--2-----------------|-------2-----------|-3-----------------|-2-----3--2--0-----|
|--------------------|-3-----------3-----|-------------------|----------------3--|
   H.                  Q     Q     Q       H.                  Q     E  E  E  E


   Q    E  E  E  E     Q    E  E  E  E     Q    E  E  E  E     H           Q    1x
|--------------------|-------------------|-------------------|-------------------|
|--1----3--1--0------|-0----1--0---------|------0------------|-------------------|
|----------------2---|------------2--0---|-2-------2--0------|-0----------------o|
|--------------------|-------------------|------0--------4---|------------------o|
|--------------------|------------2------|-3----------5------|-------------------|
|--0----------2------|-3-----------------|-------------------|-3-----------3-----|
   H          Q        H          Q        Q    Q     Q        H           Q


   Q    E  E   E  E    Q    E  E  E  E     Q    E  E  E  E     Q    E  E   Q
|--7-----------7-----|-5-------0--2------|-3----0--2--3------|-------------------|
|-------8--10-----8--|------3--------3---|---------------3---|-2----0--2---------|
|o-0-----------------|-------------------|------0------------|-2-----------2-----|
|o-------------0-----|-4----------0------|-2----------2------|-------------------|
|--------------------|-------------------|-------------------|-------------------|
|--------------------|-------------------|-------------------|-------------------|
   H           Q       H          Q        Q    Q     Q        Q    Q      Q


   E  E  E  E  E  E    Q     Q     Q       Q     Q     Q       H.
|--------------0--2--|-3-----2-----0-----|-2-----------------|-------------------|
|-----0--2--3--------|-------------------|-------------2-----|-3-----------------|
|--2-----------------|-------------------|-------2-----------|-------------------|
|--------------------|-------0-----------|-0-----------------|-0-----0-----------|
|--0-----------------|-2-----------4-----|-------------0-----|-------------3-----|
|--------------------|-------------------|-------2-----------|-------------------|
   H.                  Q     Q     Q       Q     Q     Q       Q     Q     Q


  Q    E   E   Q       Q    E   E   Q      Q     Q     Q       E  E  E  E  Q
|--------------------|-0-----------------|-------------------|-------------------|
|-3------------------|-------------------|-3-----1-----0-----|-------------------|
|------0-------0-----|------0-------0----|-------------------|-2--0-----0--2-----|
|----------4---------|----------4--------|-------------------|-0-----4-----------|
|-2------------2-----|-3------------3----|-2-----0-----------|-------------------|
|--------------------|-------------------|-------------3-----|-------------------|
  H            Q       H            Q      Q     Q     Q       Q     H


   Q     Q     Q       E E    Q    Q       H.               1x
|--------------------|-------------------|-------------------|
|--1-----0-----------|-0h3---------------|-------------------|
|--------0-----2-----|-0------0----------|-0----------------o|
|--2-----------4-----|-------------4-----|-------0----------o|
|--------------------|--------2----------|-------------------|
|--------------------|-------------------|-3-----------3-----|
   Q     Q     Q       Q      Q            Q     Q     Q


Tablature Notes
---------------
h      - hammer-on.
    nx
|o--o|                              o
|o--o| - repeat what is between the o's n times.

Duration Notes
--------------
W - whole; H - half; Q - quarter; E - eighth; . - dotted note;
Duration letters appear directly above the note/fret number it represents the
duration for. Duration letters with no fret number below/above them represent rests.
Low melody durations appear below the staff.





Comments


Popular Johann Sebastian Bach tabs & chords
Allemande From Lute Suite No 1 Bwv 996 Em Tabs
Bourree No 1 Cello Suite No 3 Tabs
Bwv 1012 Gavotte 1 And 2 Tabs
Bwv 595 Tabs
Bwv 825 Gigue Piano Partita In B Flat Tabs
Choral Prelude In E Flat Major Bwv645 Tabs
Jesu Joy Of Mans Desiring 1 Tabs
Minuet In G 4 Tabs
Prelude Bmv 999 Tabs
Toccata In D Minor Tabs


Song lyrics



↑ Back to top | Tablatures and chords are parodies/interpretations of the original songs. You may use it for private study, scholarship, research or language learning purposes only
© 2014 AZChords.com Contact us | Privacy policy | DMCA | Add/correct tabs | Request tabs | Top 50 tabs