» » »

Joel Plaskett, Happen Now Tabs (ver.2)

Artists:  A B C D E F G H I J K L M N O P Q R S T U V W X Y Z # 

Happen Now Tabs (ver.2)

Joel Plaskett Tabs
Rating:
4/5 (3 votes)
Happen Now lessons Tabs too difficult? Try these video lessons and learn fast
                Good Eastern Canadian man (Nova Scotia)
Great tune. Standard Tuning

Chords
C     032010 (Hammer on D string for Verses)
F     033210 (Hammer on g string for Verses)
G     320033
Caug  x32110
Fadd9 003213
Am    577555
_______________________________________________
_______________________________________________
Verse 1:
C                     F
Lean on in and let me bend your ear
          C                      F
I heard a little love would go a long way here
C                   F
If I could, Id get lost tonight
       C                         F
In the deep dark woods under the neon light

|--15-12-10-12--8-------------------------------------------------|
|-----------------8-10--------------------------------------------|
|----------------------9-10-9-7----------------9----7-------------|
|-------------------------------10-10------------10---9-10-9-7----|
|-------------------------------------12-10-12-----------------10-|
|-----------------------------------------------------------------| (X2)

Verse 2:
C                                     F
When your light turned green, and the lamp got lit
          C                      F
I made my first mistake, and man I paid for it

Chorus:
C                         G G G           F
What do you want me to do      To make it happen now, happen now
C                         G G G           F
What do you want me to do      To make it happen now, happen now

e|--15-12-10-12--8-------------------------------------------------|
b|-----------------8-10--------------------------------------------|
g|----------------------9-10-9-7----------------9----7-------------|
D|-------------------------------10-10------------10---9-10-9-7----|
A|-------------------------------------12-10-12-----------------10-|
E|-----------------------------------------------------------------| (x2)

Verse 3:
C                       F
All my life, Man I been running scared
       C                        F
When I turn around, I dont see nobody there

   Am                                 F
e|------------------------------------------3---1-----------------|
b|---------------------5----------------------------3-----1-0-----|
g|----5--7b9r7-5-4-5-7---7-5-4---------------0---0---0--------2-0-|
D|-7---------------------------5--------3-----3---3---3-----------|
A|-------------------------------5----3---3-----------------------|
E|----------------------------------------------------------------|

  Am                                 F
e|-----------------------------------------3---1---------------|
b|-----8---------------8---------------1------------3p1p0---0--|
g|---5---7b9r7-5-4-5-7---7p5p4----------0---0---0---------2----|
D|-7---------------------------5-5-------3---3---3-------------|
A|---------------------------------5-3-------------------------|
E|-------------------------------------------------------------|

C            Caug
To be alone, To come undone
F              Fadd9
To be the one, To be with you
C            Caug
To be alone, To come undone
F              Fadd9
To be the one, To be with you

C                         G G G           F
What do you want me to do      To make it happen now, happen now
e|----0---------------|
b|------1-3-0-1-0-----|
g|----------------2-0-|
D|--------------------|
A|--------------------|
E|--------------------|

C                         G G G           F
What do you want me to do      To make it happen now, happen now
e|----0---------------|
b|------1-3-0-1-0-----|
g|----------------2-0-|
D|--------------------|
A|--------------------|
E|--------------------|

C                         G G G           F
What do you want me to do      To make it happen now, happen now
e|----0---------------|
b|------1-3-0-1-0-----|
g|----------------2-0-|
D|--------------------|
A|--------------------|
E|--------------------|

C                         G G G           F
What do you want me to do      To make it happen now, happen now

e|--15-12-10-12--8-------------------------------------------------|
b|-----------------8-10--------------------------------------------|
g|----------------------9-10-9-7----------------9----7-------------|
D|-------------------------------10-10------------10---9-10-9-7----|
A|-------------------------------------12-10-12-----------------10-|
E|-----------------------------------------------------------------|

e|--15-12-10-12--8---------------------||
b|-----------------8-10----------------||
g|----------------------9-10-9-7-------||
D|-------------------------------10-10-||
A|-------------------------------------||
E|-------------------------------------||
            
Submit corrections

comments powered by Disqus
↑ Back to top | Joel Plaskett Tabs for Happen Now. Lyrics for acoustic guitar and electric guitar. Tablatures and chords are parodies/interpretations of the original songs. You may use it for private study, scholarship, research or language learning purposes only