» » »

Joel Plaskett, Happen Now Tabs (ver.1)

Artists:  A B C D E F G H I J K L M N O P Q R S T U V W X Y Z # 

Happen Now Tabs (ver.1)

Joel Plaskett Tabs
 Rating:
4.3/5 (6 votes)
Happen Now lessons Tabs too difficult? Try these video lessons and learn fast
                HAPPEN NOW

EVERYTHING IS STANDARD EXCEPT Caug AND F*

        Caug               F*
e|-----0----------------3------------|
B|-----1----------------1------------|
G|-----1----------------2------------|
D|-----2----------------3------------|
A|-----3-----------------------------|
E|-----------------------------------|


Verse
C                     F
Lean on in and let me bend your ear
          C                      F
I heard a little love could go a long way here
C                  F
If I could I'd get lost tonight
       C                         F
In the deep dark woods under the neon lights

RIFF (x2)

          C                         F
When your light turned green and my lamp got lit
          C                       F
I made my first mistake and man I paid for it

Chorus

C                        G           F
What do you want me to do to make it happen now?  (x2)

RIFF (x2)

C                         F
All my life man I've been runnin' scared
           C                        F
But when I turn around I dont see nobody there

Tenor Guitar solo(not tabbed)  (Am-F)

BRIDGE

   C            Caug
To be alone, to come undone,
   F             F*
To be the one to be with you

CHORUS

C                        G           F
What do you want me to do to make it happen now? (x4)


RIFF UNTIL END


e|---15--12-------12----8-----------------------------------------------------------------------------|
B|------------15------------8---10--------------------------------------------------------------------|
G|------------------------------------9--10--9--7-------------------9------7--------------------------|
D|---------------------------------------------------10--7-------7-----10-----9----10--9---7----------|
A|------------------------------------------------------------10----------------------------------10--|
E|----------------------------------------------------------------------------------------------------|


If you are playing this alone, i like to put it in open C (GGCGCE)

All C's are open, all F's are a bar on 5 and G is a bar on 7. This way the riff can be 
but still have the chords in the background. The riff :


e|--15-12----12---8------------------------------------------------------|
B|--------13--------7-9--------------------------------------------------|
G|----------------------9--10--9-7--------------9----7-------------------|
D|----------------------------------12--9----9----12---11--12--11--9-----|
A|----------------------------------------12-------------------------12--|
E|-----------------------------------------------------------------------|
            
Submit corrections

comments powered by Disqus
↑ Back to top | Joel Plaskett Tabs for Happen Now. Lyrics for acoustic guitar and electric guitar. Tablatures and chords are parodies/interpretations of the original songs. You may use it for private study, scholarship, research or language learning purposes only