>
 >
One Of These Days Intro

One Of These Days Intro Guitar Tabs

Joe Bonamassa - One Of These Days Intro chords, tabs, tablatures, lyrics

Guitar lessons | Add/correct | Request | Top 50 tabs Artists:  A B C D E F G H I J K L M N O P Q R S T U V W X Y Z 0-9

One Of These Days Intro Guitar Tabs – Joe Bonamassa

CD, Sheet music, Poster

Do you like One Of These Days Intro? Share with your friends now
Tabs
---------------------------------------------------------------------
                             SONG NAME - Band Name
---------------------------------------------------------------------

Tuning: Standard

e|------------------------------------------------------------------|
B|------------------------------------------------------------------|
G|--------------------------4p2p0-----------------------------------|
D|-2----0h2p0-2p0-2p0-2p0-2-0-------2----0h2p0-2p0-2p0-2p0--2-------|
A|-2----------------------2---------2-----------------------2-------|
E|-03b-------------------0---------0-3b--------------------0-------|

e|------------------------------------------------------------------|
B|-----3------------------------------------------------------------|
G|-2-4-2------------------------------------------------------------|
D|-0-0-0----2----0h2p0-2p0-2p0-2p0-2p0-2p0-2p0-2p0-2p0-2p0-2p0------|
A|----------2-------------------------------------------------------|
E|----------0-3b----------------------------------------------------|

This section is repeated throughout the entire song as a rhythm, then underneath in verse:  


e|------------------------------3-------------------------------3---|
B|------------------------3-----3-------------------------3-----3---|
G|-5-----7----------------2-2-2-0-----5---7---------------2-2-2-0---|
D|-5--5--7--7---7-77------0-2-2-0-----5-5-7-7---7-77------0-2-2-0---|
A|-3--5--5--7---5-55--------0-0-x-----3-5-5-7---7-77--------0-0-x---|
E|----3-----5---5-55------------3-------3---5---5-55------------3---|





Comments


Popular Joe Bonamassa tabs & chords
Heavenly Soul Chords
Three Times A Fool Chords
Black Lung Heartache Tabs
Color And Shape Tabs
Lonely Town Lonely Street 1 Tabs
So Its Like That Tabs
The Ballad Of John Henry Tabs
Unbroken Tabs
I Got All That You Need Ukulele
Sloe Gin Ukulele


Song lyrics



↑ Back to top | Tablatures and chords are parodies/interpretations of the original songs. You may use it for private study, scholarship, research or language learning purposes only
© 2014 AZChords.com Contact us | Privacy policy | DMCA | Add/correct tabs | Request tabs | Top 50 tabs