» » »

One Of These Days Tabs (ver.2)

Artists:  A B C D E F G H I J K L M N O P Q R S T U V W X Y Z # 

One Of These Days Tabs (ver.2)

Joe Bonamassa
Rating:
0/5 (0 votes)

Hard to play? Try these video lessons and learn fast.
                (Intro)
---------------------------------------------------------------------
                             SONG NAME - Band Name
---------------------------------------------------------------------

Tuning: Standard

e|------------------------------------------------------------------|
B|------------------------------------------------------------------|
G|--------------------------4p2p0-----------------------------------|
D|-2----0h2p0-2p0-2p0-2p0-2-0-------2----0h2p0-2p0-2p0-2p0--2-------|
A|-2----------------------2---------2-----------------------2-------|
E|-0—3b-------------------0---------0-3b--------------------0-------|

e|------------------------------------------------------------------|
B|-----3------------------------------------------------------------|
G|-2-4-2------------------------------------------------------------|
D|-0-0-0----2----0h2p0-2p0-2p0-2p0-2p0-2p0-2p0-2p0-2p0-2p0-2p0------|
A|----------2-------------------------------------------------------|
E|----------0-3b----------------------------------------------------|

This section is repeated throughout the entire song as a rhythm, then underneath in verse:  


e|------------------------------3-------------------------------3---|
B|------------------------3-----3-------------------------3-----3---|
G|-5-----7----------------2-2-2-0-----5---7---------------2-2-2-0---|
D|-5--5--7--7---7-77------0-2-2-0-----5-5-7-7---7-77------0-2-2-0---|
A|-3--5--5--7---5-55--------0-0-x-----3-5-5-7---7-77--------0-0-x---|
E|----3-----5---5-55------------3-------3---5---5-55------------3---|
            
Hard to play? Try these video lessons and learn fast. | Correct




comments powered by Disqus
↑ Back to top | Tablatures and chords are parodies/interpretations of the original songs. You may use it for private study, scholarship, research or language learning purposes only