>
 >
One Of These Days

One Of These Days Guitar Tabs

Joe Bonamassa - One Of These Days chords, tabs, tablatures, lyrics

Guitar lessons | Add/correct | Request | Top 50 tabs Artists:  A B C D E F G H I J K L M N O P Q R S T U V W X Y Z 0-9

One Of These Days Guitar Tabs – Joe Bonamassa

CD, Sheet music, Poster

Do you like One Of These Days? Share with your friends now
Tabs
-------------------------------------------------------------------------------
-------------------------------------------------------------------------------

Please Note: This is taken from the 'Live from Nowhere in particular' album

Tuning: EADGBe (STANDARD)


e|-----------------------------------------------------------------|
B|-------------------------------------------------------------3--5|
G|--------------------------7/4-2p0-------------------------4~~~~~-|
D|---------------0h2p0------7--------------------0h2p0-------------|
A|-----------------------------------------------------------------|
E|--0------0--3---------------------X-----0--3---------------------|


e|-----------------------------------------------------------------|
B|-----------------------------------------------------------------|
G|-------------------------7/4-2p0---------------------------------|
D|---------------0h2p0-----7---------------------0h2p0-------------|
A|-----------------------------------------------------------------|
E|--0------0--3---------------------x-----0--3-----------x--x--x--x|

Verse 1
e|----------------------------------|
B|----------------------------------|
G|----------------------------------|
D|---------------0h2p0--------------|x7
A|----------------------------------|
E|--0--x--x--3-----------x--x--x--x-|

e|----------------------------------|
B|-----------------------------3--5-|
G|--------------------------4~~~~~~-|
D|---------------0h2p0--------------|
A|----------------------------------|
E|--0--x--x--3----------------------|


e|-----------------------------------------------------------------|
B|-------------------------------------------------------------3--5|
G|--------------------------7/4-2p0-------------------------4~~~~~-|
D|---------------0h2p0------7--------------------0h2p0-------------|
A|-----------------------------------------------------------------|
E|--0------0--3-----------x---------0-----0--3------------x--------|


e|-----------------------------------------------------------------|
B|-----------------------------------------------------------------|
G|-------------------------7/4-2p0---------------------------------|
D|---------------0h2p0-----7---------------------0h2p0-------------|
A|-----------------------------------------------------------------|
E|--0------0--3----------x----------0-----0--3-----------x--x--x--x|


Verse 2
e|----------------------------------|
B|----------------------------------|
G|----------------------------------|
D|---------------0h2p0--------------|x7
A|----------------------------------|
E|--0--x--x--3-----------x--x--x--x-|

e|----------------------------------|
B|----------------------------------|
G|----------------------------------|
D|---------------0h2p0h2p0h2p0h2p0--|
A|----------------------------------|
E|--0--x--x--3----------------------|


e|-----------------------------------------------------------------|
B|-----------------------------------------------------------------|
G|---5-------7-----------------------------------------------------|
D|---5---5---7---7-----7---7---7------5----7----5----2----2---2---2|x4
A|---3---5---5---7-----7---7---7------5----7----5----2----2---2---2|
E|-------3-------5-----5---5---5------3----5----3----0----0---0---0|

e|-----------------------------------------------------------------|
B|--------------------------------------------------------------4--|
G|--------------------------7/4-2p0-----------------------4--------|
D|---------------0h2p0------7--------------------0h2p0--2---3-4----|
A|-----------------------------------------------------------------|
E|--0------0--3-----------x---------0-----0--3---------------------|


e|-----------------------------------------------------------------|
B|-----------------------------------------------------------------|
G|-------------------------7----9----------------------------------|
D|---------------0h2p0--------9------------------0h2p0-------------|
A|-----------------------------------------------------------------|
E|--0------0--3----------x----------0-----0--3-----------x--x--x--x|


Verse 3
e|----------------------------------|
B|----------------------------------|
G|----------------------------------|
D|---------------0h2p0--------------|x7
A|----------------------------------|
E|--0--x--x--3-----------x--x--x--x-|

e|----------------------------------|
B|----------------------------------|
G|----------------------------------|
D|---------------0h2p0h2p0h2p0h2p0--|
A|----------------------------------|
E|--0--x--x--3----------------------|


e|-----------------------------------------------------------------|
B|-----------------------------------------------------------------|
G|---5-------7-----------------------------------------------------|
D|---5---5---7---7-----7---7---7------5----7----5----2----2---2---2|x4
A|---3---5---5---7-----7---7---7------5----7----5----2----2---2---2|
E|-------3-------5-----5---5---5------3----5----3----0----0---0---0|



e|-------------------------------15b-------------------------------|
B|---17--17p15-14-17---17--15--15------17-17--17---12-----12-------|
D|-----------------------------------------------------14----------|
A|-----------------------------------------------------------------|
E|-----------------------------------------------------------------|



e|-----------------------------------------------------------------|
B|-----17--17--17---17----17---------------------------------------|
D|--13---13--13---11----11----7/9-7/9--9-8-6-4-6--4-4-----1-2---4-1|
A|------------------------------------------------------2----------|
E|-----------------------------------------------------------------|

e|-----------------------------------------------------------------|
B|--17---17-14--------------------14/17-14-------------------------|
G|-------------16-14-12-14-12--------------16-14-12----------------|
D|----------------------------14--------------------14p12h14-------|
A|-----------------------------------------------------------------|
E|-----------------------------------------------------------------|

e|-----------------------------------------------------------------|
B|--15--15-15-14-12/15--15-15/14/12/10/9/17--14--------------------|
G|----------------------------------------------16-14-12-----------|
D|-------------------------------------------------------14p12h14--|
A|-----------------------------------------------------------------|
E|-----------------------------------------------------------------|

e|-----------------------------------------------------------------|
B|----17---17---17---17---17---17---17-----------------------------|
G|-13---13---13---13---11---11---11---11--9/8-8/6-6/4-4/6-9---6----|
D|--------------------------------------------------------------9-9|
A|-----------------------------------------------------------------|
E|-----------------------------------------------------------------|

e|-----------------------------------------------------------------|
B|------------17-17------------------------------------------------|
G|--13-14-13----------13-9---13-9---13-9---13-9---11-9---11-9---11-|
D|-------------------------9------9------9------9------9------9----|
A|-----------------------------------------------------------------|
E|-----------------------------------------------------------------|

e|-----------12b-12-15-12--17/15/14/12-12--------------------------|
B|-12p10h12----------------------------------10h12-----------------|
G|-------------------------------------------------11h12-----------|
D|-------------------------------------------------------14--------|
A|-----------------------------------------------------------------|
E|-----------------------------------------------------------------|

e|-----------------------------------------------------------------|
B|-----------------------------------------------------------------|
G|--13-9---13-9---13-9---13-9----11-9---11-9---11-9---11-9---------|
D|-------9------9------9------13------9------9------9------9-------|
A|-----------------------------------------------------------------|
E|-----------------------------------------------------------------|

e|-----------------------------------------------------------------|
B|--10-----10-----10-----10----------------------------------------|
G|-----9------9------9------9----13-9---13-9---13-9---13-9---------|
D|-------9------9------9------9-------9------9------9------9-------|
A|-----------------------------------------------------------------|
E|-----------------------------------------------------------------|

e|-----------------------------------------------------------------|
B|-----------------------------------------------------------------|
G|--13-9---13-9---13-9---13-9----11-9---11-9---11-9---11-9---------|
D|-------9------9------9------13------9------9------9------9-------|
A|-----------------------------------------------------------------|
E|-----------------------------------------------------------------|

e|-----------------------------------------------------------------|
B|--17/14---------------------12-12---12---12----------------------|
G|--------16/14/12----------13-----13---13---13--------------------|
D|-----------------12/14-14----------------------------------------|
A|-----------------------------------------------------------------|
E|-----------------------------------------------------------------|

e|-------------------------------------------------------------1416|
B|-------------------------------------------------------141617----|
G|---1-2-4-4------1-2-4-4-----8h9-9--9-8-6-4-6--4-4--1416----------|
D|-2---------4-2----------4-2--------------------------------------|
A|-----------------------------------------------------------------|
E|-----------------------------------------------------------------|

e|-----------------------------------------------------------------|
B|-----------------------------------------------------------------|
G|---1-2-4-4------1-2-4-4------------9--8-6--4--4------------------|
D|-2---------4-2----------4-3------9------------2------------------|
A|-------------------------------7--------------2------------------|
E|----------------------------------------------0------------------|

| /  slide up
| \  slide down
| h  hammer-on
| p  pull-off
| ~  vibrato
| +  harmonic
| x  Mute note
===================================================================





Comments


Popular Joe Bonamassa tabs & chords
Bird On A Wire 1 Chords
I Got All That You Need Chords
Asking Around For You Intro Tabs
Bridge To Better Days Tabs
Takin The Hit Tabs
Unbroken Tabs
Waiting For Me Tabs
Happier Times Ukulele
Sloe Gin Ukulele
When She Dances Ukulele


Song lyrics



↑ Back to top | Tablatures and chords are parodies/interpretations of the original songs. You may use it for private study, scholarship, research or language learning purposes only
© 2014 AZChords.com Contact us | Privacy policy | DMCA | Add/correct tabs | Request tabs | Top 50 tabs