>
 >
New Day Yesterday Live

New Day Yesterday Live Guitar Tabs

Joe Bonamassa - New Day Yesterday Live chords, tabs, tablatures, lyrics

Guitar lessons | Add/correct | Request | Top 50 tabs Artists:  A B C D E F G H I J K L M N O P Q R S T U V W X Y Z 0-9

New Day Yesterday Live Guitar Tabs – Joe Bonamassa

CD, Sheet music, Poster

Do you like New Day Yesterday Live? Share with your friends now
Tabs

A New Day Yesterday / Starship Trooper (Live) By Joe Bonamassa


Intro:

e|----------------------------------------------------------------|
B|-----------------------3----------------------3------------3----|
G|-----------------------2----------------------2------------2----|
D|-----------------------0----------------------0------------0----|
A|----------------------------------------------------------------|
E|--0---0--0---0--0---0-0---0--0-0-0--0-0-0--0-0----0-0-0-0-0-----|


e|--------------------------------------------------|
B|-------------------------3-3--2-2--0--------------|
G|------------5------------2-2--2-2--0--------------|
D|------------5------------0-0--0-0------2-----2~~--|
A|------------3--------------------------------2~~--|
E|--0-0-0-0-0---0-0-0-0-0--------------3-------0~~--|

e|--------------------------------------------------------------|
B|--------------------------------------------------------------|
G|--------------------------------------------------------------|
D|------------2~~------------/5---------------------------------|
A|--3-2-0-2---------3-2-0-2-------3-2-0-2-----02020202020202----|
E|----------3---------------3-------------3---------------------|
                                            Realy fast with hammer-on


e|---------------------------------------------|
B|---------------------------------------------|
G|---------------------------------------------|
D|--------7-8-9------5~-------7-8-9------5--2x-|
A|--------5-6-7--7h5----------5-6-7--7h5-------|
E|--5-6-7-----------7---5-6-7-----------7------|


Verse:

           ...And we had some fun...
e|--------------------------------------------------------------------|
B|--------------------------------------------------------------------|
G|--------------------------------------------------------------------|
D|--2~--------2----------------------------2---------2----------------|
A|--2~----------------------------3-2-0-2------------------3-2-0-2----|
E|--0~------3----------------------------3---------3---------------3--|


Chorus:

|  A   Em  |  C   Em  |  G   A  |2/4  C   |


Riff:

e|-----------------------------|
B|-----------------------------|
G|-----------------------------|
D|---------5--------7-8-9--2x--|
A|----7-5-----------5-6-7------|
E|--0----7----5-6-7------------|


Verse

Chorus

Riff


Solo:

e|--------------------------------------12-14-15--14-12-14--12--12-14-12---|
B|--------------15-----------------12-15----------------------15-----------|
G|---12---14b(16)-14b'-12-14--12-14----------------------------------------|
D|-12--12---------------------------------------------------------------14-|
A|-------------------------------------------------------------------------|
E|-------------------------------------------------------------------------|


e|----------------------15-17-17--15-17-17b(19)(19)(19)17b'-15-------------|
B|----------15-15--15-17--------------------------------------17--17-15-17-|
G|--12-14/16---------------------------------------------------------------|
D|-------------------------------------------------------------------------|
A|-------------------------------------------------------------------------|
E|-------------------------------------------------------------------------|


e|-------12----------------|
B|--/17----15-12-----------|
G|---------------14b'-12---|
D|----------------------14-|
A|-------------------------|
E|-------------------------|

e|--------------------------------------12-14-15--14-12-14--12--12-14-12---|
B|--------------15-----------------12-15----------------------15-----------|
G|-----12-14b(16)-14b'-12-14--12-14----------------------------------------|
D|12-14-----------------------------------------------------------------14-|
A|-------------------------------------------------------------------------|
E|-------------------------------------------------------------------------|


e|----------------------15-17b(19)(19)(19)(19)(19)17b'-15----|
B|----------15-15--15-17----------------------------------17-|
G|--12-14/16-------------------------------------------------|
D|-----------------------------------------------------------|
A|-----------------------------------------------------------|
E|-----------------------------------------------------------|


Riff:

e|-----------------------------|
B|-----------------------------|
G|-----------------------------|
D|---------5--------7-8-9--4x--|
A|----7-5-----------5-6-7------|
E|--0----7----5-6-7------------|


Verse


Chorus:

|  A   Em  |  C   Em  |  G   A  |2/4  C   |


e|------------------------------|
B|------------------------------|
G|------------------------------|
D|----------5--------7-8-9------|
A|-----7-5-----------5-6-7------|
E|--0-----7----5-6-7------------|

|  G   A  |2/4  C   |


e|------------------------------|
B|------------------------------|
G|------------------------------|
D|----------5--------7-8-9--2x--|
A|-----7-5-----------5-6-7------|
E|--0-----7----5-6-7------------|

|  G   A  |2/4  C   |


Outro:


**Sarship Trooper by Yes**


e|--10--10-----6--6-----3--3--3--3--|
B|--12--12-----8--8-----5--5--5--5--|
G|--12--12-----8--8-----5--5--5--5--|
D|--12--12-----8--8-----5--5--5--5--|
A|----------------------------------|
E|----------------------------------|





Comments


Popular Joe Bonamassa tabs & chords
You Upset Me Baby Bass Tabs
Dont Burn Down That Bridge Tabs
High Water Everywhere Tabs
Lie 1 Tabs
Spanish BootsIntro Tabs
Steppin Outrice Pudding Tabs
Waiting For Me Tabs
Stop Ukulele
Three Times A Fool Ukulele
Too Much Love Aint Enough Ukulele


Song lyrics



↑ Back to top | Tablatures and chords are parodies/interpretations of the original songs. You may use it for private study, scholarship, research or language learning purposes only
© 2014 AZChords.com Contact us | Privacy policy | DMCA | Add/correct tabs | Request tabs | Top 50 tabs