» » »

New Day Yesterday Tabs (ver.1)

Artists:  A B C D E F G H I J K L M N O P Q R S T U V W X Y Z # 

New Day Yesterday Tabs (ver.1)

Joe Bonamassa
Rating:
4/5 (4 votes)

Hard to play? Try these video lessons and learn fast.
                                         JOE BONAMASSA
                       NEW DAY YESTERDAY


standard tuning
EADGBe


intro palm muted
---------------------------------------------------------------------|
--------2-----------4-----------7--------------11-------------2------|
------3---3-------5---5-------8---8---------12----12--------3---3----|
----4-------4---6-------6---9-------9----13----------13---4-------4--|
---------------------------------------------------------------------|
--2-----------4-----------7-----------11----------------2------------|

---------------|
-------4-------|
-----5---5-----|
---6-------6---|
---------------|
-4-------------|

-----------------------------------------------------------------------|
-----------------------------------------------------------------------|
--8--------------------------------------------------------------------|
--8--------4----------7-8--------4----------7-8--------4----------7-8--|
--6--6-4------------4-5-6--6-4------------4-5-6--6-4------------4-5-6--|
---------6----4-5-6------------6----4-5-6------------6----4-5-6--------|

-----------------------|
-----------------------|
-----------------------|
-------4----------7-8--|
-6-4------------4-5-6--|
-----6----4-5-6--------|

pre-chorus
-------------------------------------------------------------------------|
-------------------------------------------------------------------------|
-------------------------------------------------------------------------|
---------------------------------------------------------------------6---|
------------6------------------6------------------6------------------6---|
--6-4-2-4-2----------6-4-2-4-2----------6-4-2-4-2----------6-4-2-4-2-4---|

chorus
-----------------------------------------------------------|
-----------------------------------------------------------|
----------8--------------8----------------------------8----|
--6-------8-(x6)--9------8-(x6)--6------8------9------8----|
--6-(x6)--6-------9-(x6)-6-------6-(x6)-8-(x6)-9-(x6)-6----|
--4---------------7--------------4------6------7-----------|

he repeats the same things then the solo comes

solo
----------------------------------------------------------------------|
-----------------------------------14b16------------------------------|
-----11-13-13b-13-11-13-11--11b----------141214121412-----------------|
--13----------------------13--------------------------11p10h11p10h11--|
----------------------------------------------------------------------|
----------------------------------------------------------------------|

---------14-16-14-16b18-16-14-16-14--------|
---16b18----------------------------16-16--|
-------------------------------------------|
-------------------------------------------|
-------------------------------------------|
-------------------------------------------|

the rest of the solo is way past me
unbelievable solo
peace
            
Hard to play? Try these video lessons and learn fast. | Correct




comments powered by Disqus
↑ Back to top | Tablatures and chords are parodies/interpretations of the original songs. You may use it for private study, scholarship, research or language learning purposes only