>
 >
Killing Floor 2

Killing Floor 2 Guitar Tabs

Jimi Hendrix - Killing Floor 2 chords, tabs, tablatures, lyrics

Guitar lessons | Add/correct | Request | Top 50 tabs Artists:  A B C D E F G H I J K L M N O P Q R S T U V W X Y Z 0-9

Killing Floor 2 Guitar Tabs – Jimi Hendrix

CD, Sheet music, Poster

Do you like Killing Floor 2? Share with your friends now
Bass TabsTabsTabs v2Tabs v3
There are alot of different versions for 
this song, but this is the "BBC Sessions" 
version. A few other good versions are the 
ones from the "Monterey Pop Festival", "Paris 
Olympia" and the version from "Live at 
Winterland". This is a basic version, itīs a 
bit simplified.

I think this is a 12-Bar Blues

The Chord Progression:

| A | A | A | A | D | D | 
| A | A | E | D | Turn | Around |


Intro:

e|----------------------------------|--------------------------------|-
B|-----------------------------7-5--|---------------------------7-5--|-
G|-----------------------------7-5--|---------------------------7-5--|-
D|--5h7p5h7-7-5----5h7p5h7----------|--7-x-7-7p5----5h7p5h7----------|-
A|---------------)------------------|-------------)------------------|-
E|--------------8----------5-5------|--5---------8----------5-5------|-

e|------)--------------------------|------)--------------------------|-
B|-----7)-----7-7--5~~~------------|-----7)-----7-7--5~~~------------|-
G|-----7------7-7--5~~~------------|-----7------7-7--5~~~------------|-
D|------------------------5h7p5h7--|------------------------5h7p5h7--|-
A|---------------------------------|---------------------------------|-
E|--5------5------------5----------|--5------5------------5----------|-

e|------------------------------|--------------------------|-
B|------------------------------|--------------------------|-
G|------------------------------|--------7--7--7--7--7--7--|-
D|------------------------------|--------6--6--6--6--6--6--|-
A|------------------5--5--6--6--|--7--7--7--7--7--7--7--7--|-
E|--5--5-5--8--8-8--------------|-----0--0--0--0--0--0--0--|-

    A
e|--------------------------|---------------------------|-
B|--------------------------|---------------------------|-
G|--------------------------|--5~~~---------------------|-
D|--------7--7--5--5--------|-------7--7-7--5--5--------|-
A|--------------------7--7--|---------------------7--7--|-
E|--5--5--------------------|---------------------------|-

e|---------------------------|--------------------------|-
B|--5~~~----------------)----|--------------------------|-
G|--5~~~---------------7--7--|--5~~~--------------------|-
D|-------7--7-7--5--5--------|--------7--7--5--5--------|-
A|---------------------------|--------------------7--7--|-
E|---------------------------|--------------------------|-

    D
e|------------------------------|--------------------------------|-
B|------------------------------|--------------------------------|-
G|--10~~~-----------------------|--10~~~-------------------------|-
D|---------12--12--10--10--12\--|---------12--12--10--10---------|-
A|------------------------------|------------------------12--12--|-
E|------------------------------|--------------------------------|-

    A
e|----------------------------|------------------------------|-
B|--5-------------------------|------------------------------|-
G|--5h6~~~--------------------|--5~~~------------------------|-
D|----------7--7--5--5--------|--------7--7--5--5------------|-
A|----------------------7--7--|--------------------7p5-------|-
E|----------------------------|-------------------------5h7--|-

    E                          D 
e|--------------------------|--------------------------|-
B|--------------------------|--------------------------|-
G|--------7--7--------7--7--|--------------------------|-
D|--9--9--------9--9--------|--7--7--9--7--7--7--9--7--|-
A|--7--7--------------------|--5--5--5--5--5--5--5--5--|-
E|--------------------------|--------------------------|-

    Turnaround
e|--------------------------|--------------------------|-
B|--------------------------|--------8--8--8--8--------|-
G|--------------------------|--------7--7--7--7--------|-
D|--------------------------|--------6--6--6--6--------|-
A|--------------5--5--6--6--|--7--7--7--7--7--7--------|-
E|--5--5--8--8--------------|--------------------------|-


Verse: 

Play this with variations. 
         
    A                                               x2 
e|--------------------------|--------------------------|-
B|--------------------------|--5~~~--------------------|-
G|--------------------------|--5~~~--------------------|-
D|--------7--7--5--5--------|--------7--7--5--5--------|-
A|--------------------7--7--|--------------------7--7--|-
E|--5--5--------------------|--------------------------|-

    D 
e|----------------------------------|---------------------------------|-
B|----------------------------------|--10~~~--------------------------|-
G|----------------------------------|--10~~~--------------------------|-
D|----------12--12--10--10----------|---------12--12--10--10----------|-
A|--------------------------12--12--|-------------------------12--12--|-
E|--10--10--------------------------|---------------------------------|-

    A
e|--------------------------|--------------------------|-
B|--------------------------|--5~~~--------------------|-
G|--------------------------|--5~~~--------------------|-
D|--------7--7--5--5--------|--------7--7--5--5--------|-
A|--------------------7--7--|--------------------7--7--|-
E|--5--5--------------------|--------------------------|-

   E                          D     
e|--------------------------|--------------------------|-
B|--------------------------|--------------------------|-
G|--------9--9--7--7--------|--------7--7--5--5--------|-
D|--------------------9--9--|--------------------7--7--|-
A|--7--7--------------------|--5--5--------------------|-
E|--------------------------|--------------------------|-
    w/ Variations, see below

    Turnaround
e|--------------------------|--------------------------|-
B|--------------------------|--------8--8--8--8--8--8--|-
G|--------------------------|--------7--7--7--7--7--7--|-
D|--------------------------|--------6--6--6--6--6--6--|-
A|--------------5--5--6--6--|--7--7--7--7--7--7--7--7--|-
E|--5--5--8--8--------------|--------------------------|-


Variations:

    E                                 D
e|---------------------------------|---------------------------------|-
B|--12~~~--------------------------|--10~~~--------------------------|-
G|--12~~~--------------------------|--10~~~--------------------------|-
D|---------14--14--12--12----------|---------12--12--10--10----------|-
A|-------------------------14--14--|-------------------------12--12--|-
E|---------------------------------|---------------------------------|-

    E                            D
e|----------------------------|--------------------------|-
B|----------------------------|--------------------------|-
G|----------------------------|--------------------------|-
D|--9--9--11--9--9--9--11--9--|--7--7--9--7--7--7--9--7--|-
A|--7--7---7--7--7--7---7--7--|--5--5--5--5--5--5--5--5--|-
E|----------------------------|--------------------------|-


Guitar Solo:

e|--7/9--9~~~--------9--7--|--5-------------------------|-
B|-------------------------|--5-------------------------|-
G|--7/9--9~~~--------9--7--|--5h6-----------------------|-
D|-------------------------|---------7--7--5--5---------|-
A|-------------------------|---------------------7p5h7--|-
E|-------------------------|----------------------------|-

e|--7/9--9~~~--------9--7--|--5-----------------------|-
B|-------------------------|--5-----------------------|-
G|--7/9--9~~~--------9--7--|--5h6---------------------|-
D|-------------------------|---------7--7--5--5-------|-
A|-------------------------|---------------------7p0--|-
E|-------------------------|--------------------------|-

e|--12/14--14~~~--------14--12--|-----------------------------------|-
B|------------------------------|--10-------------------------------|-
G|--12/14--14~~~--------14--12--|--10h11----------------------------|-
D|------------------------------|---------12--12--12--10--10--------|-
A|------------------------------|-----------------------------12p0--|-
E|------------------------------|-----------------------------------|-

e|--7/9--9~~~--------9--7--|---------------------------|-
B|-------------------------|--5------------------------|-
G|--7/9--9~~~--------9--7--|--5h6--6--6----------------|-
D|-------------------------|-------7--7--7--5--5-------|-
A|-------------------------|----------------------7----|-
E|-------------------------|---------------------------|-

e|--7/9--9--9--7----7--7--7--|--7--5--5/7--5----5--5-----|-
B|---------------------------|------------------------5--|-
G|--7/9--9--9--7----7--7--7--|--7--5--5/7--5----5--5-----|-
D|---------------------------|---------------------------|-
A|---------------------------|---------------------------|-
E|---------------------------|---------------------------|-
     1          1        1  1   
e|---)---5--------------------------|-------------------------14--|-
B|--8------8p5--)-5-8p5--)--)-------|----------------------16-----|-
G|-------------7--------7--7--7--5--|--5~~~~~~--------0\----------|-
D|----------------------------------|-----------------------------|-
A|----------------------------------|-----------------------------|-
E|----------------------------------|-----------------------------|-

e|--15----15--------15-----14-14-14--|--14-14-12-12\---------------------|-
B|-----17-----17~~~----17--15-15-15--|--15-15-13-13\---------------------|-
G|-----------------------------------|------------------9/14--14--14~~~--|-
D|-----------------------------------|-----------------------------------|-
A|-----------------------------------|-----------------------------------|-
E|-----------------------------------|-----------------------------------|-

e|-----14--15--15-15---------14--14--|--14--14--12--12--12--12\----------|-
B|--0--16--17--17-17--17~~~--15--15--|--15--15--13--13--13--13\----------|-
G|--0--------------------------------|---------------------------/14-14--|-
D|-----------------------------------|-----------------------------------|-
A|-----------------------------------|-----------------------------------|-
E|-----------------------------------|-----------------------------------|-
       1 1/2                                1                1
e|-----r-b-r----------------------|---------------5----------)--|-
B|----)-\-)-\---------------------|---------)--5--5--12-10-12---|-
G|--13-----------13--10~~~--------|--------7--------------------|-
D|--------------------------------|-----------------------------|-
A|--------------------------------|-----------------------------|-
E|--------------------------------|-----------------------------|-
      1        1    1                  1 1/2
e|--12)--12----)--12)---------|--------)-------------------------|-
B|--12-------12---12---12p10--|--10--13---13~~~--13--10------10--|-
G|----------------------------|--------------------------12------|-
D|----------------------------|----------------------------------|-
A|----------------------------|----------------------------------|-
E|----------------------------|----------------------------------|-
               1      1
e|-----------------5---------------|--7p5------------------------|-
B|--------8p5--)-5----)----5--8p5--|------8----5h8--5-8--0-------|-
G|------------7------7-------------|---------------------0--12\--|-
D|---------------------------------|-----------------------------|-
A|---------------------------------|-----------------------------|-
E|---------------------------------|-----------------------------|-
                      1/4
e|-------------------------|----------------------------|-
B|--------------------)----|----------------------------|-
G|--------5~~~----7--5-----|----------------------------|-
D|--7--7-------------------|----------------------------|-
A|-------------------------|----7----7----7----7--------|-
E|-------------------------|---------0----0-------------|-

Then back to verse then play the outro.

Outro:

e|--7/9--9~~~--------9--7--|--5------------------------|-
B|-------------------------|--5------------------------|-
G|--7/9--9~~~--------9--7--|--5h6----------------------|-
D|-------------------------|-------7\------5--5--------|-
A|-------------------------|-----------7\--------7--7--|-
E|-------------------------|---------------------------|-

e|--7/9--9~~~--------9--7--|--5------------------------|-
B|-------------------------|--5------------------------|-
G|--7/9--9~~~--------9--7--|--5h6----------------------|-
D|-------------------------|-------7\------5--5--------|-
A|-------------------------|-----------7\--------7--7--|-
E|-------------------------|---------------------------|-

e|--12/14--14~~~--------14--12--|-----------------------------------|-
B|------------------------------|--10-------------------------------|-
G|--12/14--14~~~--------14--12--|--10h11----------------------------|-
D|------------------------------|---------12--12--12--10--10--------|-
A|------------------------------|-----------------------------12p0--|-
E|------------------------------|-----------------------------------|-
                                        1      1
e|--7/9--9~~~---------------|--------------5---)--------|-
B|--------------------------|-----------)-----8---------|-
G|--7/9--9~~~----0----5~~~--|--5~~~----7----------------|-
D|---------------0----------|---------------------------|-
A|--------------------------|---------------------------|-
E|--------------------------|---------------------------|-
                                                              1 
e|--------5-------5-----5------------|---------------------------|-
B|----------8-5---5-8-5---8-5-----5--|------------------------)--|-
G|--------------7--------------7-----|--0--5--7--5--7--5--0--7---|-
D|-----------------------------------|---------------------------|-
A|-----------------------------------|---------------------------|-
E|-----------------------------------|---------------------------|-

e|-----------------------------|-------------------------|-
B|-----------------------------|------------5------------|-
G|--7-5------------------------|--6---------6------------|-
D|------7-5---5----------------|--5----5----5------------|-
A|----------7---7-5-4-0--------|-------------------------|-
E|----------------------0-5----|--5----------------------|-





Comments


Popular Jimi Hendrix tabs & chords
Hey Joe 2 Bass Tabs
May This Be Love Bass Tabs
Them Changes Bass Tabs
Belly Button Window Chords
51st Anniversery Tabs
Cherokee Mist Intro Tabs
Crosstown Traffic Tabs
Hey Joe (Solo Ver 2) Tabs
Stone Free 2 Tabs
Firepile Ukulele


Song lyrics



↑ Back to top | Tablatures and chords are parodies/interpretations of the original songs. You may use it for private study, scholarship, research or language learning purposes only
© 2014 AZChords.com Contact us | Privacy policy | DMCA | Add/correct tabs | Request tabs | Top 50 tabs