» » »

Jimi Hendrix, National Anthem Tabs (ver.1)

Artists:  A B C D E F G H I J K L M N O P Q R S T U V W X Y Z # 

National Anthem Tabs (ver.1)

Jimi Hendrix Tabs
 Rating:
1.8/5 (12 votes)
National Anthem lessons Tabs too difficult? Try these video lessons and learn fast
                e-------------------------------------------------------
B-----------------------------0-0-9-7-5-4-2-4-5-5-------
G------------5\9-9-7-5------------------------------5-2---
D--5-2---2-5----------2-4-5----------------------------3
A------3------------------------------------------------
E-------------------------------------------------------

e-------------------------------------------------------
B-----------------------------0-0-9-7-5-4-2-4-5-5-------
G------------5\9-9-7-5------------------------------5-2---
D--5-2---2-5----------2-4-5----------------------------3
A------3------------------------------------------------
E-------------------------------------------------------

e---------------------------------
B--9-9-9-10-12-12--10-9-7-9-10-10-
G---------------------------------
D---------------------------------
A---------------------------------
E---------------------------------

e------------------------------
B-10-9--7-5-4--2-4-5--5--------
G------------------------5-2---
D----------------------------3-
A------------------------------
E------------------------------

e---------------------------------
B--0-5-5-5-4-2-2-2-7-10-9-7-5---4-
G---------------------------------
D---------------------------------
A---------------------------------
E---------------------------------

e----------------------------------
B-0-0-5--7-9-10-12--5-7-9--10-7--5-
G----------------------------------
D----------------------------------
A----------------------------------
E----------------------------------
            
Submit corrections

comments powered by Disqus
↑ Back to top | Jimi Hendrix Tabs for National Anthem. Lyrics for acoustic guitar and electric guitar. Tablatures and chords are parodies/interpretations of the original songs. You may use it for private study, scholarship, research or language learning purposes only