>
 >
51st Anniversary 1

51st Anniversary 1 Guitar Tabs

Jimi Hendrix - 51st Anniversary 1 chords, tabs, tablatures, lyrics

Guitar lessons | Add/correct | Request | Top 50 tabs Artists:  A B C D E F G H I J K L M N O P Q R S T U V W X Y Z 0-9

51st Anniversary 1 Guitar Tabs – Jimi Hendrix

CD, Sheet music, Poster

Do you like 51st Anniversary 1? Share with your friends now
Bass TabsTabsTabs v2
--------------------------------------------------------------

    JIMI HENDRIX - 51st ANNIVERSARY. Released as the B side of
                   PURPLE HAZE single on 17th March 1967.

--------------------------------------------------------------



A fifty years they’ve been married
And they can’t wait for their fifty first to roll around
Yeah, roll around

A thirty years they’ve been married
And now they’re old and happy and they settle down
Settle down yeah!

Twenty years they’ve been married
And they did everything that could be done
You know they're havin’ fun

And then you come along and talk about

So you .. you say you wanna be married
I’m gonna change your mind
Oh, got to change
That was the good side baby
Here comes the bad side

Ten years they’ve been married
A thousand kids run around hungry
'Cause their mother’s a louse
Daddy’s down at the whiskey house
That ain’t all

For three years they’ve been married
They don’t get along so good
They’re tired of each other, you know how it goes
She got another lover
Huh, same old thing

So now you’re seventeen
Uh run around hanging out, and a havin’ your fun
Life for you has just begun, baby

And then you come saying
So you.. you say you wanna get married
Oh, baby trying to put me on a chain
Aint that some shame
You must be losing your mmm sweet little mind
I ain’t ready yet, baby, I ain’t ready
I’m gonna change your mind

Oooh, look out!
Oh!
I ain’t ready to give that now
I ain’t ready
I ain’t ready now

Let me live a little while longer
Let me live, let me live a little while
Sssshhh! Think!
So I'll give finish talking feeling you think you're mine
Mmmmmmmmmmmmmmm Sssssshhhh!



    Standard tuning

  B
e|-------- -------- -------- --------|-------- -------- -------- --------|
B|-----------------------------------|-----------------------------------|
G|-----------------------------------|-----------------------------------|
D|9--------9--------9--------9-------|9--------9--------9--------9-------|
A|-----------------------------------|-----------------------------------|
E|7--------7--------7--------7-------|7--------7--------7--------7-------|

e|-------- -------- -------- --------|-------- -------- -------- --------|
B|-----------------------------------|3---3------------------------------|
G|---------2------------2--------2---|2H4-2------------------------------|
D|2-H-4-----------------2--H-4-------|---------4---2-------------4-------|
A|-----------------------------------|-----------------------------------|
E|-----------------------------------|-----------------------------------|


  F#
e|2------- -------- -------- --------|2-2-2-2- 2---2-2- 2-2-2-2- 2-2-2---|
B|2----------------------------------|2-2-2-2--2---2-2--2-2-2-2--2-2-2---|
G|3----------------------------------|3-3-3-3--3---3-3--3-3-3-3--3-3-3---|
D|4----------------------------------|4-4-4-4--4---4-4--4-4-4-4--4-4-4---|
A|4----------------------------------|4-4-4-4--4---4-4--4-4-4-4--4-4-4---|
E|2----------------------------------|2-2-2-2--2---2-2--2-2-2-2--2-2-2---|


  B            A                 E
e|7---7--- 7---5--- ----5--- 5---0---|----0--- 0------- -------- --------|
B|7---7----7---5--------5----5---0---|----0----0-------------------------|
G|8---8----8---6--------6----6---1---|----1----1------------2----4P2-----|
D|9---9----9---7--------7----7---2---|----2----2---0--2/4------------4---|
A|9---9----9---7--------7----7---2---|----2----2-------------------------|
E|7---7----7---5--------5----5---0---|----0----0-------------------------|

e|7---7--- 7---5--- ----5--- 5---0---|-------- 0------- -------- --------|
B|7---7----7---5--------5----5---0---|---------0------------2------------|
G|8---8----8---6--------6----6---1---|---------1---2-2--4-4-2----4P2-----|
D|9---9----9---7--------7----7---2---|---------2---2-2--4-4----------4---|
A|9---9----9---7--------7----7---2---|---------2-------------------------|
E|7---7----7---5--------5----5---0---|---------0-------------------------|
                                                                     A


  00:18

e|7------- 7---5--- ----5--- ----0---|-------- 0------- -------- --------|
B|7--------7---5--------5--------0---|---------0-------------------------|
G|8--------8---6--------6--------1---|---------1------------2----4-------|
D|9--------9---7--------7--------2---|---------2---2----2H4--------------|
A|9--------9---7--------7--------2---|---------2-------------------------|
E|7--------7---5--------5--------0---|---------0-------------------------|
  fifty years  they’ve  been     married                             And


e|7---7--- ----5--- ----5--- ----0---|----0--- 0------- -------- --------|
B|7---7--------5--------5--------0---|----0----0-------------------------|
G|8---8--------6--------6--------1---|----1----1------------2----4-------|
D|9---9--------7--------7--------2---|----2----2---2----2H4--------------|
A|9---9--------7--------7--------2---|----2----2-------------------------|
E|7---7--------5--------5--------0---|----0----0-------------------------|
  they can’t   wait     for  their fifty  first         to  roll    around

  A            G                 E
e|-------- -------- -------- --------|-------- -------- -------- --------|
B|-----------------------------------|-----------------------------------|
G|-----------------------------------|----9----7--------9---7------------|
D|-----------------------------------|----9----7--------9---7------------|
A|---------7-----------------5-------|-----------------------------------|
E|5-7/9--------3------5/7--------0---|-----------------------------------|
                                 Yeah,                  roll around

  B            A                 E
e|7---7--- 7---5--- ----5--- 5---0---|-------- 0------- -------- --------|
B|7---7----7---5--------5----5---0---|---------0-------------------------|
G|8---8----8---6--------6----6---1---|---------1------------2----4-2-----|
D|9---9----9---7--------7----7---2---|---------2---2----2H4----------4---|
A|9---9----9---7--------7----7---2---|---------2-------------------------|
E|7---7----7---5--------5----5---0---|---------0-------------------------|
                                                                     A


e|7---7--- 7---5--- ----5--- ----0---|-------- 0------- -------- --------|
B|7---7----7---5--------5--------0---|---------0------------2------------|
G|8---8----8---6--------6--------1---|---------1------------2----4-2-0---|
D|9---9----9---7--------7--------2---|---------2---2--2/4----------------|
A|9---9----9---7--------7--------2---|---------2-------------------------|
E|7---7----7---5--------5--------0---|---------0-------------------------|
  thirty years they’ve  been     married                             And


e|7---7--- 7---5--- -------- ----0---|----0--- 0------- -------- --------|
B|7---7----7---5-----------------0---|----0----0-------------------------|
G|8---8----8---6-----------------1---|----1----1------------2----4-2-----|
D|9---9----9---7-----------------2---|----2----2---2--  2H4----------4---|
A|9---9----9---7-----------------2---|----2----2-------------------------|
E|7---7----7---5-----------------0---|----0----0-------------------------|
  now they’re  old      and      happy             and  they settle  down

  A            G                 E
e|-------- -------- -------- --------|-------- -------- -------- --------|
B|-----------------------------------|-----------------------------------|
G|-----------------------------------|-----------------------------------|
D|-----------------------------------|----2-------------2---0------------|
A|---------7-----------------5-------|---------2---2-------------2---0---|
E|5-7/9--------3------5/7--------0---|-----------------------------------|
                            Ha                          settle       down

  B            A                 E
e|7---7--- 7---5--- ----5--- ----0---|----0--- -------- -------- --------|
B|7---7----7---5--------5--------0---|----0------------------------------|
G|8---8----8---6--------6--------1---|----1-----------------2----4P2-----|
D|9---9----9---7--------7--------2---|----2--------2----4------------4---|
A|9---9----9---7--------7--------2---|----2------------------------------|
E|7---7----7---5--------5--------0---|----0------------------------------|
                                 Yeah!


e|7---7--- 7---5--- ----5--- ----0---|-------- 0------- -------- --------|
B|7---7----7---5--------5--------0---|---------0-------------------------|
G|8---8----8---6--------6--------1---|---------1------------2----4P2-----|
D|9---9----9---7--------7--------2---|---------2--------2H4----------4---|
A|9---9----9---7--------7--------2---|---------2-------------------------|
E|7---7----7---5--------5--------0---|---------0-------------------------|
  twenty years they’ve  been     married                             And
                                                                      they

e|7---7--- 7---5--- ----5--- ----0---|----0--- 0------- -------- --------|
B|7---7----7---5--------5--------0---|----0----0-------------------------|
G|8---8----8---6--------6--------1---|----1----1------------2----4P2-----|
D|9---9----9---7--------7--------2---|----2----2---2----2H4----------4---|
A|9---9----9---7--------7--------2---|----2----2-------------------------|
E|7---7----7---5--------5--------0---|----0----0-------------------------|
  did everything                                   that could be     done

  A            G                 E
e|-------- -------- -------- --------|-------- -------- ----2--- --------|
B|-----------------------------------|----------------------3B4----------|
G|-----------------------------------|----2--------2----4------------4---|
D|-----------------------------------|---------4-------------------------|
A|---------7-----------------5-------|-----------------------------------|
E|5-7/9--------3--------7--------0---|-----------------------------------|
                                 You  know         they're
                                                        havin’


  B            D             G                                   F#
e|7------- ----5--- -------- 3-------|-------- -------- -------- 2-------|
B|7------------7-------------3-------|---------------------------2-------|
G|8------------7-------------4-------|---------------------------3-------|
D|9---9--------7-------------5-------|---------------------------4-------|
A|9---9--------5-------------5-------|---------------------------4-------|
E|7---7----------------------3-------|---------------------------2-------|
  fun


  01:00
  B5
e|-------- -------- -------- --------|-------- -------- -------- --------|
B|-----------------------------------|-----------------------------------|
G|4----------------------------------|-----------------------------------|
D|4----------------------------------|-----------------------------------|
A|2----------------------------------|-----------------------------------|
E|-----------------------------------|-----------------------------------|
                      And    you  along   and  talk about
                        then    come

e|-------- -------- -------- --------|-------- -------- -------- --------|
B|-----------------------------------|-----------------------------------|
G|---------7---------------------7---|7---7------------------------------|
D|---------7---------------------7---|9---7------------------------------|
A|7/9-------------------7----9-------|---------9---7-------------9-------|
E|-----------------------------------|-----------------------------------|
  So       you          you  say you  wanna    be  married


                                                            x    x x x x

e|-------- -------- -------- --------|-------- -------- -------- --------|
B|-----------------------------------|-----------------------------------|
G|-----------------------------------|-----------------------------------|
D|-----------------------------------|-----------------------------------|
A|-----------------------------------|-----------------------------------|
E|-----------------------------------|-----------------------------------|

  X            X
  B            E
e|7------- ----0--- -------- --------|-------- -------- -------- --------|
B|7------------0---------------------|-----------------------------------|
G|8------------1---------------------|-----------------------------------|
D|9------------2---------------------|-----------------------------------|
A|9------------2---------------------|-----------------------------------|
E|7------------0---------------------|-----------------------------------|
                                 I’m      gonna    change        your


e|-------- -------- -------- --------|-------- -------- -------- --------|
B|-------------7--------7------------|-----------------------------------|
G|----7----9---7--------7----9P7-----|7---7-----------------7----9P7-----|
D|7/9-7----9-----------------9P7-9---|7---7-----------------7----9P7-----|
A|7/9----------------------------9---|---------9P7------7/9----------9---|
E|-----------------------------------|-------------10--------------------|
  mind                                                      Oh,


  01:18
  B            A                 E
e|7---7--- 7---5--- ----5--- ----0---|----0--- 0------- -------- --------|
B|7---7----7---5--------5--------0---|----0----0-------------------------|
G|8---8----8---6--------6--------1---|----1----1------------2----4P2-----|
D|9---9----9---7--------7--------2---|----2----2---2----2/4----------4---|
A|9---9----9---7--------7--------2---|----2----2-------------------------|
E|7---7----7---5--------5--------0---|----0----0-------------------------|
                        got  to  change                    That      good
                                                              was the

e|7---7--- 7---5--- ----5--- ----0---|----0--- -------- -------- --------|
B|7---7----7---5--------5--------0---|----0------------------------------|
G|8---8----8---6--------6--------1---|----1-----------------2----4P2-----|
D|9---9----9---7--------7--------2---|----2--------2----2/4----------4---|
A|9---9----9---7--------7--------2---|----2------------------------------|
E|7---7----7---5--------5--------0---|----0------------------------------|
  side baby                 Here comes    side
                                 the  bad

  01:26

e|7---7--- ----5--- -------- ----0---|----0--- 0---2--- ----2--- 2-------|
B|7---7--------5-----------------0---|----0----0---3B4------3B4--3B4-----|
G|8---8--------6-----------------1---|----1----1-------------------------|
D|9---9--------7-----------------2---|----2----2-------------------------|
A|9---9--------7-----------------2---|----2----2-------------------------|
E|7---7--------5-----------------0---|----0----0-------------------------|
  Ten   years  they’ve  been     married                             And


e|7---7--- ----5--- -------- ----0---|----0--- 0---2--- ----2--- 2-------|
B|7---7--------5-----------------0---|----0----0---3B4------3B4--3B4-----|
G|8---8--------6-----------------1---|----1----1-------------------------|
D|9---9--------7-----------------2---|----2----2-------------------------|
A|9---9--------7-----------------2---|----2----2-------------------------|
E|7---7--------5-----------------0---|----0----0-------------------------|
  thousand kids       run around hungry          'cause mother’s louse
                                                     their   a


  A            G                 E
e|-------- -------- -------- ----0---|----0--- 0------- 7---7--- --------|
B|-------------------------------0---|----0----0--------7---7--------7---|
G|-------------------------------1---|----1----1--------7---7--------7---|
D|-------------------------------2---|----2----2---9-------------9-------|
A|---------7-----------------5---2---|----2----2-------------------------|
E|5-7/9--------3------5/7--------0---|----0----0-------------------------|
                                      Daddy’s       down  at   the


e|7---7--- 7---5--- ----5--- ----0---|----0--- 0---2--- ----2--- 2-------|
B|7---7----7---5--------5--------0---|----0----0---3B4------3B4--3B4-----|
G|8---8----8---6--------6--------1---|----1----1-------------------------|
D|9---9----9---7--------7--------2---|----2----2-------------------------|
A|9---9----9---7--------7--------2---|----2----2-------------------------|
E|7---7----7---5--------5--------0---|----0----0-------------------------|
  whiskey      house                    That   all                   For
                                           ain’t

e|7---7--- 7---5--- ----5--- ----0---|----0--- 0---2--- ----2--- 2-------|
B|7---7----7---5--------5--------0---|----0----0---3B4------3B4--3B4-----|
G|8---8----8---6--------6--------1---|----1----1-------------------------|
D|9---9----9---7--------7--------2---|----2----2-------------------------|
A|9---9----9---7--------7--------2---|----2----2-------------------------|
E|7---7----7---5--------5--------0---|----0----0-------------------------|
  three years  they’ve  been     married                             they


e|7---7--- 7---5--- ----5--- ----0---|----0--- 0---2--- ----2--- 2-------|
B|7---7----7---5--------5--------0---|----0----0---3B4------3B4--3B4-----|
G|8---8----8---6--------6--------1---|----1----1-------------------------|
D|9---9----9---7--------7--------2---|----2----2-------------------------|
A|9---9----9---7--------7--------2---|----2----2-------------------------|
E|7---7----7---5--------5--------0---|----0----0-------------------------|
     don’t get along    so       good,             they’re         of each
                                                        tired

e|-------- -------- -------- ----0---|----0--- 0---2--- ----2--- 2-------|
B|-------------------------------0---|----0----0---3B4------3B4--3B4-0---|
G|-------------------------------1---|----1----1-------------------------|
D|-------------------------------2---|----2----2-------------------------|
A|---------7-----------------5---2---|----2----2-------------------------|
E|5-7/9--------3------5/7--------0---|----0----0-------------------------|
  other,                you  how it goes         She             lover
                          know                     got another

e|7---7--- 7---5--- ----5--- ----0---|----0--- 0---2--- ----2--- 2-------|
B|7---7----7---5--------5--------0---|----0----0---3B4------3B4--3B4-----|
G|8---8----8---6--------6--------1---|----1----1-------------------------|
D|9---9----9---7--------7--------2---|----2----2-------------------------|
A|9---9----9---7--------7--------2---|----2----2-------------------------|
E|7---7----7---5--------5--------0---|----0----0-------------------------|
               Huh,          same old thing                          So


e|7---7--- 7---5--- ----5--- ----0---|----0--- 0---2--- ----2--- 2-------|
B|7---7----7---5--------5--------0---|----0----0---3B4------3B4--3B4-----|
G|8---8----8---6--------6--------1---|----1----1-------------------------|
D|9---9----9---7--------7--------2---|----2----2-------------------------|
A|9---9----9---7--------7--------2---|----2----2-------------------------|
E|7---7----7---5--------5--------0---|----0----0-------------------------|
  now you’re   seventeen                                             uh


e|7---7--- 7---5--- ----5--- ----0---|----0--- 0---2--- ----2--- 2-------|
B|7---7----7---5--------5--------0---|----0----0---3B4------3B4--3B4-----|
G|8---8----8---6--------6--------1---|----1----1-------------------------|
D|9---9----9---7--------7--------2---|----2----2-------------------------|
A|9---9----9---7--------7--------2---|----2----2-------------------------|
E|7---7----7---5--------5--------0---|----0----0-------------------------|
  Run around   hanging  out,   and a                 havin’   your   fun


e|-------- -------- -------- ----0---|----0--- 0---2--- ----2--- 2-------|
B|-------------------------------0---|----0----0---3B4------3B4--3B4-0---|
G|-------------------------------1---|----1----1-------------------------|
D|-------------------------------2---|----2----2-------------------------|
A|---------7-----------------5---2---|----2----2-------------------------|
E|5-7/9--------3------5/7--------0---|----0----0-------------------------|
                                 Life     for  you has  just begun,

  B            D             G                                   F#
e|7---7--- 7---5--- 5------- 3-------|-------- -------- -------- 2-------|
B|7---7----7---7----7--------3-------|---------------------------2-------|
G|8---8----8---7----7--------4-------|---------------------------3-------|
D|9---9----9---7----7--------5-------|---------------------------4-------|
A|9---9----9---5----5--------5-------|---------------------------4-------|
E|7---7----7-----------------3-------|---------------------------2-------|
             baby


  02:07
  B5
e|-------- -------- -------- --------|-------- -------- -------- --------|
B|-----------------------------------|-----------------------------------|
G|4----------------------------------|-----------------------------------|
D|4----------------------------------|-----------------------------------|
A|2----------------------------------|-----------------------------------|
E|-----------------------------------|-----------------------------------|
               And  then you come saying

e|-------- -------- -------- --------|-------- -------- -------- --------|
B|-----------------------------------|-----------------------------------|
G|-----------------------------------|7---7------------------------------|
D|---------7---------------------7---|9---7------------------------------|
A|7/9-------------------7----9-------|---------9---7-------------9-------|
E|-----------------------------------|-----------------------------------|
  So       you          you  say you  wanna    be  married

      x x      x        x x      x        x x      x        x x      x

e|-------- -------- -------- --------|-------- -------- -------- --------|
B|-----------------------------------|-----------------------------------|
G|-----------------------------------|-----------------------------------|
D|-----------------------------------|-----------------------------------|
A|-----------------------------------|-----------------------------------|
E|-----------------------------------|-----------------------------------|
                                 Oh,         baby


e|-------- -------- -------- --------|-------- -------- -------- --------|
B|-----------------------------------|-----------------------------------|
G|---------7---------------------7---|7---7------------------------------|
D|7-H-9----7-------------7-H-9---7---|7H9-7----9---7-------------9-------|
A|7-H-9------------------7-H-9-------|---------9---7-------------9-------|
E|-----------------------------------|-----------------------------------|
           trying to put me on a chain                          Aint that
                                                                      some

e|-------- -------- -------- --------|-------- -------- -------- --------|
B|-----------------------------------|-----------------------------------|
G|-----------------------------------|-----------------------------------|
D|-----------------------------------|-----------------------------------|
A|-----------------------------------|-----------------------------------|
E|-----------------------------------|-----------------------------------|
  shame                             You        losing your           mmm
                                       must be

e|-------- -------- -------- --------|-------- -------- -------- --------|
B|-----------------------------------|-----------------------------------|
G|---------7---------------------7---|7---7------------------------------|
D|7-H-9----7-------------7-H-9---7---|7H9-7----9---7-------------9-------|
A|7-H-9------------------7-H-9-------|---------9---7-------------9-------|
E|-----------------------------------|-----------------------------------|
                    sweet    mind
                        little

                                                            x    x x x x

e|-------- -------- -------- --------|-------- -------- -------- --------|
B|-----------------------------------|-----------------------------------|
G|-----------------------------------|-----------------------------------|
D|-----------------------------------|-----------------------------------|
A|-----------------------------------|-----------------------------------|
E|-----------------------------------|-----------------------------------|
        I ain’t ready yet, baby,                I ain’t ready


  X            X
  B            E
e|7------- ----0--- -------- --------|-------- -------- -------- --------|
B|7------------0---------------------|-----------------------------------|
G|8------------1---------------------|-----------------------------------|
D|9------------2---------------------|-----------------------------------|
A|9------------2---------------------|-----------------------------------|
E|7------------0---------------------|-----------------------------------|
                                 I’m      gonna    change        your


e|-------- -------- -------- --------|-------- -------- --------10/121212|
B|-----------------------------------|------------------10101010---------|
G|11111111-1111-9-9-9-9-9-9--7-7-7-7-|9-9-9-9--11111111----------7/-9-9-9|
D|-----------------------------------|-------------------7-7-7-7---------|
A|-9-9-9-9--9-9-7-7-7-7-7-7--5-5-5-5-|7-7-7-7---9-9-9-9------------------|
E|-----------------------------------|-----------------------------------|
  mind                                   Oooh, Look out!


  02:39

e|7---7--- 7---5--- ----5--- ----0---|----0--- -------- -------- --------|
B|7---7----7---5--------5--------0---|----0------------------------------|
G|8---8----8---6--------6--------1---|----1--9/11111111-9-9-9----7-------|
D|9---9----9---7--------7--------2---|----2------------------------------|
A|9---9----9---7--------7--------2---|----2--7/-9-9-9-9-7-7-7----5-------|
E|7---7----7---5--------5--------0---|----0------------------------------|
               Oh!                                      I       ain't


e|7---7-7- 7---5--- 5---5--- ----0---|----0--- -------- -------- --------|
B|7---7-7--7---5----5---5--------0---|----0------------------------------|
G|8---8-8--8---6----6---6--------1---|----1--9/11-------9--------7-------|
D|9---9-9--9---7----7---7--------2---|----2------------------------------|
A|9---9-9--9---7----7---7--------2---|----2--7/-9-------7--------5-------|
E|7---7-7--7---5----5---5--------0---|----0------------------------------|
  ready                 to   that     now                   I    ain't
                         give

e|7---7--- 7---5--- ----5--- ----0---|-------- -------- -------- --------|
B|7---7----7---5--------5--------0---|----0------------------------------|
G|8---8----8---6--------6--------1---|----0----11/13----11-------9---7---|
D|9---9----9---7--------7--------2---|----0------------------------------|
A|9---9----9---7--------7--------2---|----------9/11-----9-------7---5---|
E|7---7----7---5--------5--------0---|-----------------------------------|
  ready                 I  ain't ready    now               Let  me live


e|7---7-7- 7---5--- ----5--- ----0---|----0--- 0------- -------- --------|
B|7---7-7--7---5--------5--------0---|----0----0-------------------------|
G|8---8-8--8---6--------6--------1---|----1----1------------2----4P2-----|
D|9---9-9--9---7--------7--------2---|----2----2---2----2H4----------4---|
A|9---9-9--9---7--------7--------2---|----2----2-------------------------|
E|7---7-7--7---5--------5--------0---|----0----0-------------------------|
                        a little longer                     Let  me live,
                             while

e|7---7--- 7---5--- ----5--- ----0---|----0--- 0---0-0- --0-0--- 0-------|
B|7---7----7---5--------5--------0---|----0----0---0-0----0-0----0-------|
G|8---8----8---6--------6--------1---|----1----1---1-1----1-1----1-------|
D|9---9----9---7--------7--------2---|----2----2---2-2----2-2----2-------|
A|9---9----9---7--------7--------2---|----2----2---2-2----2-2----2-------|
E|7---7----7---5--------5--------0---|----0----0---0-0----0-0----0-------|
                        let  me  live     a little while


                                                            x    x x x x

e|7---7-7- 7---5--- -------- 3-------|-------- -------- -------- 2-------|
B|7---7-7--7---7-------------3-------|---------------------------2-------|
G|8---8-8--8---7-------------4-------|---------------------------3-------|
D|9---9-9--9---7-------------5-------|---------------------------4-------|
A|9---9-9--9---5-------------5-------|---------------------------4-------|
E|7---7-7--7-----------------3-------|---------------------------2-------|

                                             03:02
                                              Gadd G
e|7---7-7- 7---5--- -------- 3-------|-------- 5-P-3--- 5-P-3--- 5-P-3---|
B|7---7-7--7---7-------------3-------|---------3--------3--------3-------|
G|8---8-8--8---7-------------4-------|---------4--------4--------4-------|
D|9---9-9--9---7-------------5-------|---------5--------5--------5-------|
A|9---9-9--9---5-------------5-------|-----------------------------------|
E|7---7-7--7-----------------3-------|-----------------------------------|
                                                                 Sssssshh!


e|5-P-3--- 5-P-3--- 5-P-3--- 5-P-3---|5-P-3--- 5-P-3--- 5-P-3--- 5-P-3---|
B|3--------3--------3--------3-------|3--------3--------3--------3-------|
G|4--------4--------4--------4-------|4--------4--------4--------4-------|
D|5--------5--------5--------5-------|5--------5--------5--------5-------|
A|-----------------------------------|-----------------------------------|
E|-----------------------------------|-----------------------------------|
           Think!     So I'll give             feeling  think    mine
                                finish               you    you're
                                   talking


e|5-P-3--- 5-P-3--- 5-P-3--- 5-P-3---|5-P-3--- 5-P-3--- 5-P-3--- 5-P-3---|
B|5--------5--------5--------5-------|5--------5--------5--------5-------|
G|6--------6--------6--------6-------|6--------6--------6--------6-------|
D|7--------7--------7--------7-------|7--------7--------7--------7-------|
A|-----------------------------------|-----------------------------------|
E|-----------------------------------|-----------------------------------|
           Mmmmmmmmmmmmmmmmm                   Sssssssshhh!
  ..................................Fade.................................

e|5-P-3--- 5-P-3--- 5-P-3--- 5-P-3---|5-P-3--- 5-P-3--- 5-P-3--- 5-P-3---|
B|5--------5--------5--------5-------|5--------5--------5--------5-------|
G|6--------6--------6--------6-------|6--------6--------6--------6-------|
D|7--------7--------7--------7-------|7--------7--------7--------7-------|
A|-----------------------------------|-----------------------------------|
E|-----------------------------------|-----------------------------------|
                        Oh!
  .......................................................................




        B  Bend
        R  Release
        /  Slide up
          Slide down
        H  Hammer-on
        P  Pull-off
        ~  Vibrato
        +  Harmonic
        x  Mute note
        .  Play note like a dot in standard notation
        ^  Ties two notes together
        (.  Pause





Comments


Popular Jimi Hendrix tabs & chords
Blue Suede Shoes Bass Tabs
Foxy Lady 3 Bass Tabs
The Wind Cries Mary Bass Tabs
Astro Man Chords
Firepile Chords
Fire Drum Tabs
Are You Experienced Tabs
Cherokee Jam Tabs
Freedom Tabs
You Got Me Floatin Tabs


Song lyrics



↑ Back to top | Tablatures and chords are parodies/interpretations of the original songs. You may use it for private study, scholarship, research or language learning purposes only
© 2014 AZChords.com Contact us | Privacy policy | DMCA | Add/correct tabs | Request tabs | Top 50 tabs