» » »

Jet Lag Gemini, Fit To Be Tied Tabs (ver.4)

Artists:  A B C D E F G H I J K L M N O P Q R S T U V W X Y Z # 

Fit To Be Tied Tabs (ver.4)

Jet Lag Gemini Tabs
 Rating:
4/5 (4 votes)
Fit To Be Tied lessons Tabs too difficult? Try these video lessons and learn fast
                (Intro)
Jet Lag Gemini - Fit To Be Tied

The previous one was almost right
this shounds better to me
please rate

Standard Tuning
bu = bend up and release

   bu
e------------121212--999----------999-|
B--11--------121212--999--121212--999-|
G--11--9------------------------------|x5
D--------11---------------------------|
A-------------------------------------|
E-------------------------------------|
   bu
e------------121212--999----------999----|
B--11--------121212--999--121212--999-<9>|
G--11--9---------------------------------|
D--------11------------------------------|
A----------------------------------------|
E----------------------------------------|
                            bu
e-121212--999----------999-----------|
B-121212--999--121212--999--11-------|
G---------------------------11--9----|x3
D---------------------------------11-|
A------------------------------------|
E------------------------------------|

                            bu
e-121212--999----------999--12-|
B-121212--999--121212--999--12-|
G------------------------------|
D------------------------------|
A------------------------------|
E------------------------------|

see the chords tab for the rest of the song
            
Submit corrections

comments powered by Disqus
↑ Back to top | Jet Lag Gemini Tabs for Fit To Be Tied. Lyrics for acoustic guitar and electric guitar. Tablatures and chords are parodies/interpretations of the original songs. You may use it for private study, scholarship, research or language learning purposes only