>
 >
Fit To Be Tied 1

Fit To Be Tied 1 Guitar Tabs

Jet Lag Gemini - Fit To Be Tied 1 chords, tabs, tablatures, lyrics

Guitar lessons | Add/correct | Request | Top 50 tabs Artists:  A B C D E F G H I J K L M N O P Q R S T U V W X Y Z 0-9

Fit To Be Tied 1 Guitar Tabs – Jet Lag Gemini

CD, Sheet music, Poster

Do you like Fit To Be Tied 1? Share with your friends now
ChordsTabsTabs v2Ukulele
Fit to Be Tied - Jet Lag Gemini (Fire The Cannons Album)

(A note of thanks: I took spike46's Intro and modified it slightly, so thank him for the 
I also used paramore_fans' Chords for the basis of the Verses/Chorus. Much Thanks to 
both.)

This is actually my first tab, but I attempted to make it as accurate as possible. I 
several notes that (hopefully) better explain the process of playing.
I acknowledge the fact I have left a few minor portions of the song out, and it is 
there are typos, for I lost a bit of diligence by the time I had gotten to posting this on 
site. My apologies if there are.

This tab lacks a solo for the time being. I hope to add it later, whether I tab it 
or someone else graciously provides it.

Hope you enjoy the tab and this awesome song.
I personally suggest playing along with the song to learn timing and playing style, etc.


Standard Tuning - EADGBe
Chords Used: C#  B  A  F#  c

=====MAIN RIFF (INTRO):======================================================

[Bend the '^' note up slightly and very quickly. This riff repeats quickly.]

Guitar 1:
    ^
e|------------121212--999----------999-------|
B|--11--------121212--999----------999-------|
G|--11--9------------------121212------------| x5
D|--------11---------------------------------|
A|-------------------------------------------|
E|-------------------------------------------|

***6th Time:
    ^          *Pinch Harmonic (Or: Play note 16th fret on high e String)
e|------------121212--999----------999----------|
B|--11--------121212--999----------999---<9>----|
G|--11--9------------------121212---------------|
D|--------11------------------------------------|
A|----------------------------------------------|
E|----------------------------------------------|

[While Main Riff is playing, Guitar 2 plays this after 2nd time:]

                                          *Let Ring throughout 2 more Riffs
e|----------------------------------------------|
B|----------------------------------------------|
G|----6~~~~~~~~~~~~~~~~~~~~~~~~~~~~~~~~~~~~~~~--|
D|----6~~~~~~~~~~~~~~~~~~~~~~~~~~~~~~~~~~~~~~~--|
A|----4~~~~~~~~~~~~~~~~~~~~~~~~~~~~~~~~~~~~~~~--|
E|----------------------------------------------|

***Played 5th time.
e|----------------------------------------------|
B|----------------------------------------------|
G|----6-6-6-6-6-6-6-6-6-6-6-6-6-6-6-6-----------|
D|----6-6-6-6-6-6-6-6-6-6-6-6-6-6-6-6-----------|
A|----4-4-4-4-4-4-4-4-4-4-4-4-4-4-4-4-----------|
E|----------------------------------------------|
      . . . . . . . . . . . . . . . .         ***Dots are Palm-Mutes

***Played 6th time.
e|----------------------------------------------|
B|----------------------------------------------|
G|----6666666666666666666666666666666-----------|
D|----6666666666666666666666666666666-----------|
A|----4444444444444444444444444444444-----------|
E|----------------------------------------------|
      ...............................

====(INTRO PART 2:)==========================================================
[Basically Identical to Intro]

Guitar 1:
    ^
e|------------121212--999----------999-------|
B|--11--------121212--999----------999-------|
G|--11--9------------------121212------------|x3 ***(below)
D|--------11---------------------------------|
A|-------------------------------------------|
E|-------------------------------------------|

Guitar 2:
e|--------------------------------------------------------------------|
B|--------------------------------------------------------------------|
G|--6-6-6-6-6-6-6-6-6-6-6-6-6-6-6-6-----------------------------------|
D|--6-6-6-6-6-6-6-6-6-6-6-6-6-6-6-4-7-7-7-7-7-7-7-4-4-4-4-4-4-4-4-4---|
A|--4-4-4-4-4-4-4-4-4-4-4-4-4-4-4-4-7-7-7-7-7-7-7-4-4-4-4-4-4-4-4-4---|
E|----------------------------------5-5-5-5-5-5-5-2-2-2-2-2-2-2-2-2---|
    . . . . . . . . . . . . . . . . . . . . . . . . . . . . . . . .

***Play 4th time
    ^
e|------------121212--999----------999--/12--|
B|--11--------121212--999----------999--/12--|
G|--11--9------------------121212------------|
D|--------11---------------------------------|
A|-------------------------------------------|
E|-------------------------------------------|

=====(VERSE 1:)==============================================================
[Guitar 1 has brief parts where it plays an accented chord over Guitar 2, but those are 
included in this tab at the moment.]

Guitar 2:
e|----------------------------------------------------------------------|
B|----------------------------------------------------------------------|
G|--6-6-6-6-6-6-6-6-6-6-6-6-6-6-6-6-----------------6-6-6-6-6-6-6-6-6---|x2
D|--6-6-6-6-6-6-6-6-6-6-6-6-6-6-6-6-7-7-7-7-4-4-4-4-6-6-6-6-6-6-6-6-6---|
A|--4-4-4-4-4-4-4-4-4-4-4-4-4-4-4-4-7-7-7-7-4-4-4-4-4-4-4-4-4-4-4-4-4---|
E|----------------------------------5-5-5-5-2-2-2-2---------------------|
    . . . . . . . . . . . . . . . . . . . . . . . . . . . . . . . . .

e|----------------------------------------------------------------------|
B|----------------------------------------------------------------------|
G|--6---------------4---------------------------------------------------|
D|--6---------------4---------------7---------------4-4-4-4-4-4-4-4-4---|
A|--4---------------2---------------7---------------4-4-4-4-4-4-4-4-4---|
E|----------------------------------5---------------2-2-2-2-2-2-2-2-2---|
                                                    . . . . . . . . .

Guitar 1: (Play after Guitar 2's last F#)
e|----------------------------------------|
B|----------------------------------------|
G|----------------------------------------|
D|---------------2--4--2--<4>-------------|
A|---------2--4---------------------------|
E|---2--4---------------------------------|

=====(CHORUS:)===============================================================

e|----------------------------------------------------------------------|
B|----------------------------------------------------------------------|
G|--6-6-6-6-6-6-6-6---------------------------------4-4-4-4-5-5-5-5-----|x2
D|--6-6-6-6-6-6-6-6-7-7-7-7-7-7-7-7-4-4-4-4-4-4-4-4-4-4-4-4-5-5-5-5-----|
A|--4-4-4-4-4-4-4-4-7-7-7-7-7-7-7-7-4-4-4-4-4-4-4-4-2-2-2-2-3-3-3-3-----|
E|------------------5-5-5-5-5-5-5-5-2-2-2-2-2-2-2-2---------------------|
***Both guitars may play Chorus, but Guitar 1 has a part immediately following.

=====(PRE-VERSE:)============================================================

Guitar 1:
e|-121212--999----------999---|
B|-121212--999----------999---|
G|--------------121212--------|
D|----------------------------|
A|----------------------------|
E|----------------------------|

    ^
e|------------121212--999----------999-------|
B|--11--------121212--999----------999-------|
G|--11--9------------------121212------------| x2
D|--------11---------------------------------|
A|-------------------------------------------|
E|-------------------------------------------|


Guitar 2: ***Begin playing when Guitar 1 hits the high G on the 12th fret.
e|----------------------------------------------------------------------|
B|----------------------------------------------------------------------|
G|--6-6-6-6-6-6-6-6-6-6-6-6-6-6-6-6-------------------------------------|x2
D|--6-6-6-6-6-6-6-6-6-6-6-6-6-6-6-6-7-7-7-7-7-7-7-7-4-4-4-4-4-4-4-4-4---|
A|--4-4-4-4-4-4-4-4-4-4-4-4-4-4-4-4-7-7-7-7-7-7-7-7-4-4-4-4-4-4-4-4-4---|
E|----------------------------------5-5-5-5-5-5-5-5-2-2-2-2-2-2-2-2-2---|
    . . . . . . . . . . . . . . . . . . . . . . . . . . . . . . . . .

Then...
    ^                                           *Let ring into next verse.
e|------------121212--999----------999--/12-----------|
B|--11--------121212--999----------999--/12-----------|
G|--11--9------------------121212-----------11--9~~~~~|
D|--------11------------------------------------------|
A|----------------------------------------------------|
E|----------------------------------------------------|

=====(VERSE 2:)==============================================================

Guitar 2:
e|----------------------------------------------------------------------|
B|----------------------------------------------------------------------|
G|--6-6-6-6-6-6-6-6-6-6-6-6-6-6-6-6-----------------6-6-6-6-6-6-6-6-6---|
D|--6-6-6-6-6-6-6-6-6-6-6-6-6-6-6-6-7-7-7-7-4-4-4-4-6-6-6-6-6-6-6-6-6---|
A|--4-4-4-4-4-4-4-4-4-4-4-4-4-4-4-4-7-7-7-7-4-4-4-4-4-4-4-4-4-4-4-4-4---|
E|----------------------------------5-5-5-5-2-2-2-2---------------------|
    . . . . . . . . . . . . . . . . . . . . . . . . . . . . . . . . .

***2nd Time:
e|----------------------------------------------------------------------|
B|----------------------------------------------------------------------|
G|--6-------6--6----6--6----------------------------6-6-6-6-6-6-6-6-6---|
D|--6-------6--6----6--6------------7-7-7-7-4-4-4-4-6-6-6-6-6-6-6-6-6---|
A|--4-------4--4----4--4------------7-7-7-7-4-4-4-4-4-4-4-4-4-4-4-4-4---|
E|----------------------------------5-5-5-5-2-2-2-2---------------------|
    v         v  v    v  v                . . . . . . . . . . . . . . . . .
"..Sings...to all...my wrongs...too good to be..."

***This time is played with the C# accented on the words as they're sung.

e|----------------------------------------------------------------------|
B|----------------------------------------------------------------------|
G|--6---------------4---------------------------------------------------|
D|--6---------------4---------------7---------------4-4-4-4-4-4-4-4-4---|
A|--4---------------2---------------7---------------4-4-4-4-4-4-4-4-4---|
E|----------------------------------5---------------2-2-2-2-2-2-2-2-2---|
                                                    . . . . . . . . .

Guitar 1: (Play after Guitar 2's last F#)
e|----------------------------------------|
B|----------------------------------------|
G|----------------------------------------|
D|------------<2>-------------------------|
A|---------2------------------------------|
E|---2--4---------------------------------|

=====(CHORUS:)===============================================================
[Just like last time, but plays whole chorus twice.]

***First time
e|----------------------------------------------------------------------|
B|----------------------------------------------------------------------|
G|--6-6-6-6-6-6-6-6---------------------------------4-4-4-4-5-5-5-5-----|x2
D|--6-6-6-6-6-6-6-6-7-7-7-7-7-7-7-7-4-4-4-4-4-4-4-4-4-4-4-4-5-5-5-5-----|
A|--4-4-4-4-4-4-4-4-7-7-7-7-7-7-7-7-4-4-4-4-4-4-4-4-2-2-2-2-3-3-3-3-----|
E|------------------5-5-5-5-5-5-5-5-2-2-2-2-2-2-2-2---------------------|

***Second Time
e|----------------------------------------------------------------------|
B|----------------------------------------------------------------------|
G|------6-6-6-6-6-6---------------------------------4-4-4-4-5-5-5-5-----|
D|------6-6-6-6-6-6-7-7-7-7-7-7-7-7-4-4-4-4-4-4-4-4-4-4-4-4-5-5-5-5-----|
A|------4-4-4-4-4-4-7-7-7-7-7-7-7-7-4-4-4-4-4-4-4-4-2-2-2-2-3-3-3-3-----|
E|------------------5-5-5-5-5-5-5-5-2-2-2-2-2-2-2-2---------------------|

e|----------------------------------------------------------------------|
B|----------------------------------------------------------------------|
G|--6-6-6-6-6-6-6-6---------------------------------4-4-4-4-5-5-5-5-----|
D|--6-6-6-6-6-6-6-6-7-7-7-7-7-7-7-7-4-4-4-4-4-4-4-4-4-4-4-4-5-5-5-5-----|
A|--4-4-4-4-4-4-4-4-7-7-7-7-7-7-7-7-4-4-4-4-4-4-4-4-2-2-2-2-3-3-3-3-----|
E|------------------5-5-5-5-5-5-5-5-2-2-2-2-2-2-2-2---------------------|

(Only thing different is the rest at the very beginning of the verse.)

=====(SOLO:)=================================================================

Sorry! I have not finished it yet!

=====(FINAL CHORUS:)=========================================================
[Done once without guitar, just drums.]


***First time
e|----------------------------------------------------------------------|
B|----------------------------------------------------------------------|
G|--6-6-6-6-6-6-6-6---------------------------------4-4-4-4-5-5-5-5-----|x2
D|--6-6-6-6-6-6-6-6-7-7-7-7-7-7-7-7-4-4-4-4-4-4-4-4-4-4-4-4-5-5-5-5-----|
A|--4-4-4-4-4-4-4-4-7-7-7-7-7-7-7-7-4-4-4-4-4-4-4-4-2-2-2-2-3-3-3-3-----|
E|------------------5-5-5-5-5-5-5-5-2-2-2-2-2-2-2-2---------------------|

***Second Time
e|----------------------------------------------------------------------|
B|----------------------------------------------------------------------|
G|------6-6-6-6-6-6---------------------------------4-4-4-4-5-5-5-5-----|
D|------6-6-6-6-6-6-7-7-7-7-7-7-7-7-4-4-4-4-4-4-4-4-4-4-4-4-5-5-5-5-----|
A|------4-4-4-4-4-4-7-7-7-7-7-7-7-7-4-4-4-4-4-4-4-4-2-2-2-2-3-3-3-3-----|
E|------------------5-5-5-5-5-5-5-5-2-2-2-2-2-2-2-2---------------------|

e|----------------------------------------------------------------------|
B|----------------------------------------------------------------------|
G|--6-6-6-6-6-6-6-6---------------------------------4-4-4-4-5-5-5-5-----|
D|--6-6-6-6-6-6-6-6-7-7-7-7-7-7-7-7-4-4-4-4-4-4-4-4-4-4-4-4-5-5-5-5-----|
A|--4-4-4-4-4-4-4-4-7-7-7-7-7-7-7-7-4-4-4-4-4-4-4-4-2-2-2-2-3-3-3-3-----|
E|------------------5-5-5-5-5-5-5-5-2-2-2-2-2-2-2-2---------------------|


Jet Lag Gemini actually varies the final chorus a little bit by cutting out
some notes, playing others with feeling. My suggestion on learning the "actual"
method is just to listen to the song.

Well, that pretty much wraps it up. Will be working on the solo when I get time.





Comments


Popular Jet Lag Gemini tabs & chords
Bittersweet Chords
Doctor, Please! Chords
Fit To Be Tied Chords
Run This City Chords
Bittersweet Intro Tabs
Fit To Be Tied Tabs
Fit To Be Tied Intro 1 Tabs
Ready Set No Tabs
Stepping Stone Tabs
Geared For Action Ukulele


Song lyrics



↑ Back to top | Tablatures and chords are parodies/interpretations of the original songs. You may use it for private study, scholarship, research or language learning purposes only
© 2014 AZChords.com Contact us | Privacy policy | DMCA | Add/correct tabs | Request tabs | Top 50 tabs