>
 >
Fit To Be Tied

Fit To Be Tied Guitar Tabs

Jet Lag Gemini - Fit To Be Tied chords, tabs, tablatures, lyrics

Guitar lessons | Add/correct | Request | Top 50 tabs Artists:  A B C D E F G H I J K L M N O P Q R S T U V W X Y Z 0-9

Fit To Be Tied Guitar Tabs – Jet Lag Gemini

CD, Sheet music, Poster

Do you like Fit To Be Tied? Share with your friends now
ChordsTabsTabs v2Ukulele

TUNING:    Half Step Down = Eb-Ab-Db-Gb-Bb-eb


This is a class song and I was disappointed to find no full accurate tabs so I thought I 
would give it a shot, hope you all enjoy!!

KEY:
b = Bend
r = Return (from a bend)
t = Tap On
h = Hammer On
p = Pull Off
<> = Pinch Harmonic
~~ = Let Ring
|- -P.M- -| (under notes) = Palm Mute those notes
tr = Tremlo Pick
\ = Slide Down
/ = Slide Up

=============================Intro===============================================

Guitar 1:

eb|--------------------|
Bb|--12b13r12----------|
Gb|--12b13r12-10-------|
Db|--------------12----|
Ab|--------------------|
Eb|--------------------|

Main Riff:

eb|-131313--101010----------101010--------------------|
Bb|-131313--101010----------101010--12b13r12----------|  (The bend is quite quick)
Gb|-----------------131313----------12b13r12--10------| x5
Db|---------------------------------------------12----|
Ab|---------------------------------------------------|
Eb|---------------------------------------------------|

eb|-131313--101010----------101010-----------|
Bb|-131313--101010----------101010-----------|
Gb|-----------------131313-----------<13>----|
Db|------------------------------------------|
Ab|------------------------------------------|
Eb|------------------------------------------|

Than repeat the Main Riff 4 more times, the last of which is slightly different:

eb|-131313--101010----------101010--10-----|
Bb|-131313--101010----------101010--13b----|
Gb|-----------------131313-----------------|
Db|----------------------------------------|
Ab|----------------------------------------|
Eb|----------------------------------------|



Guitar 2:

3rd time of Main Riff:
eb|-----------------------------------------|
Bb|-----------------------------------------|
Gb|-5~~~~~~~~~~~~~~~~~~~~~~~~~~~~~~~~~~~~~~~|
Db|-5~~~~~~~~~~~~~~~~~~~~~~~~~~~~~~~~~~~~~~~|
Ab|-3~~~~~~~~~~~~~~~~~~~~~~~~~~~~~~~~~~~~~~~| Let ring for two Riffs
Eb|-----------------------------------------|

5th Time:
eb|------------------------------------|
Bb|------------------------------------|     On the second time start
Gb|-7-7-7-7-7-7-7-7-7-7-7-7-7-7-7-7----|     lifting your palm so it
Db|-7-7-7-7-7-7-7-7-7-7-7-7-7-7-7-7----| x2  progressively becomes more
Ab|-5-5-5-5-5-5-5-5-5-5-5-5-5-5-5-5----|     open.
Eb|------------------------------------|
  |- - - - - - - P.M - - - - - - -|


Then:
eb|--------|
Bb|--------|
Gb|-<7>----|  at the same time as Guitar 1s harmonic
Db|--------|
Ab|--------|
Eb|--------|

eb|--------------------------------------------------------------------|
Bb|--------------------------------------------------------------------|
Gb|-7-7-7-7-7-7-7-7-7-7-7-7-7-7-7-7------------------------------------|
Db|-7-7-7-7-7-7-7-7-7-7-7-7-7-7-7-7-8-8-8-8-8-8-5-5-5-5-5-5-5-5-5-5----| x2
Ab|-5-5-5-5-5-5-5-5-5-5-5-5-5-5-5-5-8-8-8-8-8-8-5-5-5-5-5-5-5-5-5-5----|
Eb|---------------------------------6-6-6-6-6-6-3-3-3-3-3-3-3-3-3-3----|



=============================VERSE 1=============================================

eb|------------------------------------------------------------------------|
Bb|------------------------------------------------------------------------|
Gb|-7-7-7-7-7-7-7-7-7-7-7-7-7-7-7-7---------------------7-7-7-7-7-7-7-7----| x2
Db|-7-7-7-7-7-7-7-7-7-7-7-7-7-7-7-7-8-8-8-8-10-10-10-10-7-7-7-7-7-7-7-7----|
Ab|-5-5-5-5-5-5-5-5-5-5-5-5-5-5-5-5-8-8-8-8-10-10-10-10-5-5-5-5-5-5-5-5----|
Eb|---------------------------------6-6-6-6--8--8--8--8--------------------|
  |- - - - -P.M- - - -|   |- - - - - - - - - -P.M- - - - - - - - - - -|

eb|-----------------------------------------------------------------------|
Bb|----------------------10-10--------------------------------------------|
Gb|-7--------------------10-10--------------------------------------------|
Db|-7---------------10---------------8---------------5-5-5-5-5-5-5-5-5----|
Ab|-5---------------10---------------8---------------5-5-5-5-5-5-5-5-5----|
Eb|------------------8---------------6---------------3-3-3-3-3-3-3-3-3----|


Guitar 1:
eb|--------------------------|
Bb|--------------------------|
Gb|-------------3-----<3>----|
Db|-------3--5-----5---------|
Ab|-3--5---------------------|
Eb|--------------------------|

=============================CHORUS 1============================================

eb|--------------------------------------------------------------------|
Bb|--------------------------------------------------------------------|
Gb|-7-7-7-7-7-7-7-7---------------------------------5-5-5-5-6-6-6-6----|x2
Db|-7-7-7-7-7-7-7-7-8-8-8-8-8-8-8-8-5-5-5-5-5-5-5-5-5-5-5-5-6-6-6-6----|
Ab|-5-5-5-5-5-5-5-5-8-8-8-8-8-8-8-8-5-5-5-5-5-5-5-5-3-3-3-3-4-4-4-4----|
Eb|-----------------6-6-6-6-6-6-6-6-3-3-3-3-3-3-3-3--------------------|


=============================Post-Chorus============================================

Guitar 1:
eb|-131313--101010----------101010--------------------|
Bb|-131313--101010----------101010--12b13r12----------|  
Gb|-----------------131313----------12b13r12--10------| x3
Db|---------------------------------------------12----|
Ab|---------------------------------------------------|
Eb|---------------------------------------------------|

eb|-131313--101010----------101010--------------------|
Bb|-131313--101010----------101010--13----------------|
Gb|-----------------131313-------------13b14r13-------|
Db|---------------------------------------------12----|
Ab|---------------------------------------------------|
Eb|---------------------------------------------------|

Guitar 2:

 (*Begin playing when Guitar 1 hits the F string on the 14th fret*)
eb|---------------------------------------------------------------------|
Bb|---------------------------------------------------------------------|
Gb|--------------7-7-7-7-7-7-7-7-7-7------------------------------------|
Db|--------------7-7-7-7-7-7-7-7-7-7-8-8-8-8-8-8-5-5-5-5-5-5-5-5-5-5----| x2
Ab|--------------5-5-5-5-5-5-5-5-5-5-8-8-8-8-8-8-5-5-5-5-5-5-5-5-5-5----|
Eb|----------------------------------6-6-6-6-6-6-3-3-3-3-3-3-3-3-3-3----|


=============================VERSE 2============================================

eb|------------------------------------------------------------------------|
Bb|------------------------------------------------------------------------|
Gb|-7-7-7-7-7-7-7-7-7-7-7-7-7-7-7-7---------------------7-7-7-7-7-7-7-7----| 
Db|-7-7-7-7-7-7-7-7-7-7-7-7-7-7-7-7-8-8-8-8-10-10-10-10-7-7-7-7-7-7-7-7----|
Ab|-5-5-5-5-5-5-5-5-5-5-5-5-5-5-5-5-8-8-8-8-10-10-10-10-5-5-5-5-5-5-5-5----|
Eb|---------------------------------6-6-6-6--8--8--8--8--------------------|
  |- - - - -P.M- - - -|   |- - - - - - - - - -P.M- - - - - - - - - - -|

eb|----------------------------------------------------------|
Bb|----------------------------------------------------------|
Gb|---7---------7--7---7---7---------------------------------|
Db|---7---------7--7---7---7----------8-8-8-8-10-10-10-10----|
Ab|---5---------5--5---5---5----------8-8-8-8-10-10-10-10----|
Eb|-----------------------------------6-6-6-6--8--8--8--8----|
"..sings along to all my wrongs..."

eb|-----------------------------------------------------------------------|
Bb|----------------------10-10--------------------------------------------|
Gb|-7--------------------10-10--------------------------------------------|
Db|-7---------------10---------------8---------------5-5-5-5-5-5-5-5-5----|
Ab|-5---------------10---------------8---------------5-5-5-5-5-5-5-5-5----|
Eb|------------------8---------------6---------------3-3-3-3-3-3-3-3-3----|

Guitar 1:
eb|-10----|
Bb|-10----|
Gb|-------|
Db|-------|
Ab|-------|
Eb|-------|

=============================CHORUS 2============================================

eb|--------------------------------------------------------------------|
Bb|--------------------------------------------------------------------|
Gb|-7-7-7-7-7-7-7-7---------------------------------5-5-5-5-6-6-6-6----|x2
Db|-7-7-7-7-7-7-7-7-8-8-8-8-8-8-8-8-5-5-5-5-5-5-5-5-5-5-5-5-6-6-6-6----|
Ab|-5-5-5-5-5-5-5-5-8-8-8-8-8-8-8-8-5-5-5-5-5-5-5-5-3-3-3-3-4-4-4-4----|
Eb|-----------------6-6-6-6-6-6-6-6-3-3-3-3-3-3-3-3--------------------|

eb|--------------------------------------------------------------------|
Bb|--------------------------------------------------------------------|
Gb|-------7-7-7-7-7---------------------------------5-5-5-5-6-6-6-6----|x2
Db|-------7-7-7-7-7-8-8-8-8-8-8-8-8-5-5-5-5-5-5-5-5-5-5-5-5-6-6-6-6----|
Ab|-------5-5-5-5-5-8-8-8-8-8-8-8-8-5-5-5-5-5-5-5-5-3-3-3-3-4-4-4-4----|
Eb|-----------------6-6-6-6-6-6-6-6-3-3-3-3-3-3-3-3--------------------|

eb|--------------------------------------------------------------------|
Bb|--------------------------------------------------------------------|
Gb|-7-7-7-7-7-7-7-7---------------------------------5-5-5-5-6-6-6-6----|
Db|-7-7-7-7-7-7-7-7-8-8-8-8-8-8-8-8-5-5-5-5-5-5-5-5-5-5-5-5-6-6-6-6----|
Ab|-5-5-5-5-5-5-5-5-8-8-8-8-8-8-8-8-5-5-5-5-5-5-5-5-3-3-3-3-4-4-4-4----|
Eb|-----------------6-6-6-6-6-6-6-6-3-3-3-3-3-3-3-3--------------------|


=============================Breakdown============================================

Guitar 2:

eb|----------------------------------------------|
Bb|----------------------------------------------|
Gb|----------------------------------------------|
Db|-3-3-3-3--3--333--333-5-5-5-5--5--222--000----| x2
Ab|-5-5-5-5--5--555--555-5-5-5-5--5--333--111----|
Eb|----------------------------------------------|

eb|-------------|
Bb|-------------|
Gb|-------------|
Db|-3-3-3-3\----|
Ab|-3-3-3-3\----|
Eb|-------------|

Guitar 1:
Comes in 2nd time

eb|----------------------------------------------------------|
Bb|----------------------------------------------------------|
Gb|-----------------------------------------<5>--------------|
Db|-7-7-7-7--7--777--777-8-8-8-8--8--777--55------7-7-7-7----|
Ab|----------------------------------------------------------|
Eb|----------------------------------------------------------|



=============================Solo==========================================================

Guitar 1:

eb|----------------------------------------------------------|
Bb|-------------------13b14-13-11-10-13-10h11p10----10-------|
Gb|----------10-12-14----------------------------12-12b14----|
Db|-10-12-13-------------------------------------------------|
Ab|----------------------------------------------------------|
Eb|----------------------------------------------------------|

eb|----------------------------------------------------|
Bb|-/15-t18p15-13-11----11-13-15-t18p15--13--11--------|
Gb|------------------13--------------------------13----|
Db|----------------------------------------------------|
Ab|----------------------------------------------------|
Eb|----------------------------------------------------|

eb|----------------------------------------------------------------------------|
Bb|----------------------------------------------------------------------------|
Gb|--------------------------------------------------------------------<10>----|
Db|-15tr-14tr-12tr-10tr-12tr-14tr-15tr-17rt-19tr-15tr-14tr-10-12--10h12--------|
Ab|----------------------------------------------------------------------------|
Eb|----------------------------------------------------------------------------|

eb|----------------|       eb|----------------|
Bb|-15p13----13----|       Bb|-17p13----13----|
Gb|-------14-------|       Gb|-------14-------|
Db|----------------| x8    Db|----------------| x4
Ab|----------------|       Ab|----------------|
Eb|----------------|       Eb|----------------|

eb|--------------------------------------------|
Bb|-22p20----20p19----22p20-19h20--------------|
Gb|-------21-------21-------------21---9-------|
Db|-----------------------------------11b13----|
Ab|--------------------------------------------|
Eb|--------------------------------------------|

eb|-t17p13p10-t17p13p10-t17p13p10-t17p13p10-t18p13p10-t18p13p10-t18p13p10-t19p13p10----|
Bb|------------------------------------------------------------------------------------|
Gb|------------------------------------------------------------------------------------|
Db|------------------------------------------------------------------------------------|
Ab|------------------------------------------------------------------------------------|
Eb|------------------------------------------------------------------------------------|

eb|-t15p13p10-t15p13p10-t15p13p10-t15p13p10-t17p13p10-t17p13p10-t17p13p10-t17p13p10----|
Bb|------------------------------------------------------------------------------------|
Gb|------------------------------------------------------------------------------------|
Db|------------------------------------------------------------------------------------|
Ab|-----------------------------------------------------------------------------------|
Eb|------------------------------------------------------------------------------------|

eb|-----------------------|
Bb|---------13b14 <13>----|
Gb|-11b12-9---------------|
Db|-----------------------|
Ab|-----------------------|
Eb|-----------------------|

PITCH CHANGED BIT: I donít have a pitch changer so Iím not sure how right this is, I think 
the minimum you need is a 15 semitone increase in pitch. With which you would play:

eb|-/14t16p14t16p14t16p14t16p14--/14t16p14t16p14t16p14t16p14----|
Bb|-------------------------------------------------------------|
Gb|-------------------------------------------------------------|
Db|-------------------------------------------------------------|
Ab|-------------------------------------------------------------|
Eb|-------------------------------------------------------------|

eb|-23-21-19-17-16----|
Bb|-------------------|
Gb|-------------------|
Db|-------------------|
Ab|-------------------|
Eb|-------------------|

Then OFF the Pitch Changer:
(This is very rough and probably not even 50% correct, but just so thereís something here 
I tried to figure something out)

eb|-------------------------------------------------------------|
Bb|-------------------------------------------------------------|
Gb|-14-12-11----12-11-------------------------------------------|
Db|----------14-------14-12-11-12-14-12-11----------------------|
Ab|----------------------------------------14-12-11-------13----|
Eb|-------------------------------------------------14-12-11----|

Guitar 2:

eb|--------------------------------------------------------------------|
Bb|--------------------------------------------------------------------|
Gb|-------------------------------------------------5-5-5-5-5-5-5-5----|
Db|-8-8-8-8-8-8-8-8-8-8-8-8-8-8-8-8-3-3-3-3-3-3-3-3-5-5-5-5-5-5-5-5----|
Ab|-8-8-8-8-8-8-8-8-8-8-8-8-8-8-8-8-3-3-3-3-3-3-3-3-3-3-3-3-3-3-3-3----|
Eb|-6-6-6-6-6-6-6-6-6-6-6-6-6-6-6-6-1-1-1-1-1-1-1-1--------------------|

eb|---------------------------------------------|
Bb|---------------------------------------------|
Gb|-7-7-7-7--7--777-777--7-7-7-7--7--777-777----|
Db|-7-7-7-7--7--777-777--7-7-7-7--7--777-777----|
Ab|-5-5-5-5--5--555-555--5-5-5-5--5--555-555----|
Eb|---------------------------------------------|

eb|--------------------------------------------------------------------|
Bb|--------------------------------------------------------------------|
Gb|-------------------------------------------------5-5-5-5-5-5-5-5----|
Db|-8-8-8-8-8-8-8-8-8-8-8-8-8-8-8-8-3-3-3-3-3-3-3-3-5-5-5-5-5-5-5-5----|
Ab|-8-8-8-8-8-8-8-8-8-8-8-8-8-8-8-8-3-3-3-3-3-3-3-3-3-3-3-3-3-3-3-3----|
Eb|-6-6-6-6-6-6-6-6-6-6-6-6-6-6-6-6-1-1-1-1-1-1-1-1--------------------|



eb|----------------|
Bb|----------------|
Gb|-7--------7\----|
Db|-7-x64----7\----|                     (I think its 64 times, lost count...)
Ab|-5--------5\----|
Eb|----------------|

=============================CHORUS 3==========================================================

Chorus is done once with only vocals and drums, then:

eb|-------------------------------------------|
Bb|-------------------------------------------|
Gb|-------------------------------------------|
Db|-------------------------------------------|
Ab|-----------5~~~~~~~~~~~~~~~~~~~~~~~~~~~~~~~|
Eb|-------------------------------------------|
ďSo give me your hand....Ē
(Play when he sings "your")

eb|--------------------------------------------------------------------|
Bb|--------------------------------------------------------------------|
Gb|-7-7-7-7-7-7-7-7---------------------------------5-5-5-5-6-6-6-6----|x2
Db|-7-7-7-7-7-7-7-7-8-8-8-8-8-8-8-8-5-5-5-5-5-5-5-5-5-5-5-5-6-6-6-6----|
Ab|-5-5-5-5-5-5-5-5-8-8-8-8-8-8-8-8-5-5-5-5-5-5-5-5-3-3-3-3-4-4-4-4----|
Eb|-----------------6-6-6-6-6-6-6-6-3-3-3-3-3-3-3-3--------------------|

eb|--------------------------------------------------------------------|
Bb|--------------------------------------------------------------------|
Gb|-------7-7-7-7-7---------------------------------5-5-5-5-6-6-6-6----|x2
Db|-------7-7-7-7-7-8-8-8-8-8-8-8-8-5-5-5-5-5-5-5-5-5-5-5-5-6-6-6-6----|
Ab|-------5-5-5-5-5-8-8-8-8-8-8-8-8-5-5-5-5-5-5-5-5-3-3-3-3-4-4-4-4----|
Eb|-----------------6-6-6-6-6-6-6-6-3-3-3-3-3-3-3-3--------------------|

eb|----------------------------------------------------------------------------|
Bb|----------------------------------------------------------------------------|
Gb|-7-7-7-7-7-7-7-7---------------------------------5--5--5--6--6--6--7~~7\----|
Db|-7-7-7-7-7-7-7-7-8-8-8-8-8-8-8-8-5-5-5-5-5-5-5-5-5--5--5--6--6--6--7~~7\----|
Ab|-5-5-5-5-5-5-5-5-8-8-8-8-8-8-8-8-5-5-5-5-5-5-5-5-3--3--3--4--4--4--5~~5\----|
Eb|-----------------6-6-6-6-6-6-6-6-3-3-3-3-3-3-3-3----------------------------|

The End.





Comments


Popular Jet Lag Gemini tabs & chords
Doctor, Please! Chords
Geared For Action Chords
Bittersweet Intro Tabs
Fit To Be Tied 1 Tabs
Fit To Be Tied Intro 1 Tabs
Ready Set No Tabs
Stepping Stone Tabs
Bittersweet Ukulele
Fit To Be Tied Ukulele
Keep This With You Ukulele


Song lyrics



↑ Back to top | Tablatures and chords are parodies/interpretations of the original songs. You may use it for private study, scholarship, research or language learning purposes only
© 2014 AZChords.com Contact us | Privacy policy | DMCA | Add/correct tabs | Request tabs | Top 50 tabs