» » »

Jesse Barrera, In The End Tabs (ver.2)

Artists:  A B C D E F G H I J K L M N O P Q R S T U V W X Y Z # 

In The End Tabs (ver.2)

Jesse Barrera Tabs
Rating:
5/5 (1 vote)
In The End lessons Tabs too difficult? Try these video lessons and learn fast
                -------------------------------------------------------------------------------
                             In The End - Jesse Barrera
-------------------------------------------------------------------------------

Tuning: Standard

Once again; not exact. His chords have a more bassy sound and looks like they are formed 
some jazz chords or something. Here's a version with some chords.

Here's how I play it:

Intro
e|--------1---3--------------------------------------------------------------------|
B|-1---1--1---3--------------------------------------------------------------------|
G|-0---0--2---4--------------------------------------------------------------------|
D|-2---2--3---5--------------------------------------------------------------------|
A|-3------3---5--------------------------------------------------------------------|
E|--------1---3--------------------------------------------------------------------|


Verse
(The World ain't spinning faster...)
e|--1----------------------------------------------------------------------------|
B|--1----1-----------------------------------------------------------------------|
G|--2----0-----------------------------------------------------------------------|
D|--3----2-----------------------------------------------------------------------|
A|--3----3-----------------------------------------------------------------------|
E|--1----------------------------------------------------------------------------|

Pre Chorus
(I can't bear...)
e|--1--1-------------------------------------------------------------------------|
B|--3--1-------------------------------------------------------------------------|
G|--2--2-------------------------------------------------------------------------|
D|--0--3-------------------------------------------------------------------------|
A|-----3-------------------------------------------------------------------------|
E|-----1-------------------------------------------------------------------------|

(All my life... But I still Try...)
e|--1--1---3------------------------------------------------------------------------|
B|--3--1---3------------------------------------------------------------------------|
G|--2--2---4------------------------------------------------------------------------|
D|--0--3---5------------------------------------------------------------------------|
A|-----3---5------------------------------------------------------------------------|
E|-----1---3------------------------------------------------------------------------|


Chorus

e|--------1---3--------------------------------------------------------------------|
B|-1---1--1---3--------------------------------------------------------------------|
G|-0---0--2---4--------------------------------------------------------------------|
D|-2---2--3---5--------------------------------------------------------------------|
A|-3------3---5--------------------------------------------------------------------|
E|--------1---3--------------------------------------------------------------------|

(And I hope you know...)
e|--0--------1----------------------------------------------------------------------|
B|--1--1--3--1--1-------------------------------------------------------------------|
G|--2--0--2--2--2-------------------------------------------------------------------|
D|--2--2-----3--0-------------------------------------------------------------------|
A|--0--------3--3-------------------------------------------------------------------|
E|-----3--2--1----------------------------------------------------------------------|

Back to verse:
I wish that we could see the country
But that's not part of your plans
I know that flying's not an option
There's so much weight on your hands

And I want you to know that
I can't stand that I'm away for far too long
And I can't stand
The fact that you're unhappy all the time
I know
I've never hurt much more than this
But I still try

Chorus

Bridge
(All I know...)
e|--------1--1---------------------------------------------------------------------|
B|--1-----1--1---------------------------------------------------------------------|
G|--2--3--2--1---------------------------------------------------------------------|
D|--2--2--3--3---------------------------------------------------------------------|
A|--0--3--3--3---------------------------------------------------------------------|
E|--------1--1---------------------------------------------------------------------|

Have fun!
            

comments powered by Disqus
↑ Back to top | Jesse Barrera Tabs for In The End. Lyrics for acoustic guitar and electric guitar. Tablatures and chords are parodies/interpretations of the original songs. You may use it for private study, scholarship, research or language learning purposes only