>
 >
In The End

In The End Guitar Tabs

Jesse Barrera - In The End chords, tabs, tablatures, lyrics

Guitar lessons | Add/correct | Request | Top 50 tabs Artists:  A B C D E F G H I J K L M N O P Q R S T U V W X Y Z 0-9

In The End Guitar Tabs – Jesse Barrera

CD, Sheet music, Poster

Do you like In The End? Share with your friends now
TabsTabs v2
This is the way i play this song its pretty legit ;]

*=muted
and yeah fuigure out the strumming yourself =p


Intro
e|------------------------------------------------------------------------------------|
B|--0-----0------0------0-------------------------------------------------------------|
G|--8-----8------8------8-------------------------------------------------------------|
D|--9-----9------9------9-------------------------------------------------------------|
A|--*-----*------7------9-------------------------------------------------------------|
E|--7-----9---------------------------------------------------------------------------|


The world aint spinning faster thand youd like it
e|--0------------------------------------------------------------------------------|
B|--0------------------------------------------------------------------------------|
G|--1------------------------------------------------------------------------------|
D|--2------------------------------------------------------------------------------|
A|--2------------------------------------------------------------------------------|
E|--0------------------------------------------------------------------------------|

To go
e|---------------------------------------------------------------------------------|
B|--0------------------------------------------------------------------------------|
G|--8------------------------------------------------------------------------------|
D|--9------------------------------------------------------------------------------|
A|--*------------------------------------------------------------------------------|
E|--7------------------------------------------------------------------------------|

And as the seasons pass...
e|--0------------------------------------------------------------------------------|
B|--0------------------------------------------------------------------------------|
G|--1------------------------------------------------------------------------------|
D|--2------------------------------------------------------------------------------|
A|--2------------------------------------------------------------------------------|
E|--0------------------------------------------------------------------------------|


Continue to grow...
e|---------------------------------------------------------------------------------|
B|--0------------------------------------------------------------------------------|
G|--8------------------------------------------------------------------------------|
D|--9------------------------------------------------------------------------------|
A|--*------------------------------------------------------------------------------|
E|--7------------------------------------------------------------------------------|

And i cant bear the voices that i wake up to
e|---------------------------------------------------------------------------------|
B|--0------------------------------------------------------------------------------|
G|--10-----------------------------------------------------------------------------|
D|--11-----------------------------------------------------------------------------|
A|--*------------------------------------------------------------------------------|
E|--9------------------------------------------------------------------------------|

every night and morning...
e|--0------------------------------------------------------------------------------|
B|--0------------------------------------------------------------------------------|
G|--1------------------------------------------------------------------------------|
D|--2------------------------------------------------------------------------------|
A|--2------------------------------------------------------------------------------|
E|--0------------------------------------------------------------------------------|

All my life ive never known much more than this but
e|---------------------------------------------------------------------------------|
B|--0------------------------------------------------------------------------------|
G|--10-----------------------------------------------------------------------------|
D|--11-----------------------------------------------------------------------------|
A|--*------------------------------------------------------------------------------|
E|--9------------------------------------------------------------------------------|

i still try i still try
e|----------------------------------------------------------------------------------|
B|--0---------0---------------------------------------------------------------------|
G|--1---------3---------------------------------------------------------------------|
D|--2---------4---------------------------------------------------------------------|
A|--2---------4---------------------------------------------------------------------|
E|--0---------0---------------------------------------------------------------------|

cus in the end the ash falls of the cigarette...( SAME AS THE INTRO^^^)

that ill still love you in the morning (when it rises= SAME AS INTRO^^^)
e|-------------------------------------------------------------------------------------|
B|--0--0-------0--------------0--------------------------------------------------------|
G|--1--0-------10-------------9--------------------------------------------------------|
D|--2--2-------11-------------11-------------------------------------------------------|
A|--2--2-------*--------------0--------------------------------------------------------|
E|--0--0-------9--------------0--------------------------------------------------------|

NOW WE SKIP TO..

All i know is that you make this life so wonderful
e|---------------------------------------0-------------------------------------------|
B|--0------0-----------0-----------------0-------------------------------------------|
G|--1------2-----------1-----------------0-------------------------------------------|
D|--2------1-----------2-----------------2-------------------------------------------|
A|--2------2-----------2-----------------2-------------------------------------------|
E|--0------0-----------0-------------------------------------------------------------|





Comments


Popular Jesse Barrera tabs & chords
Anything To Make This Last Chords
Stay With Me 1 Chords
Tangled Up 1 Chords
Try Chords
I Used To Be A Devil Tabs
Try Tabs
Try 1 Tabs
Aching Ukulele
Try Ukulele
Weak Ukulele


Song lyrics



↑ Back to top | Tablatures and chords are parodies/interpretations of the original songs. You may use it for private study, scholarship, research or language learning purposes only
© 2014 AZChords.com Contact us | Privacy policy | DMCA | Add/correct tabs | Request tabs | Top 50 tabs