» » »

Jerryc, Wedding In The Dream Tabs (ver.3)

Artists:  A B C D E F G H I J K L M N O P Q R S T U V W X Y Z # 

Wedding In The Dream Tabs (ver.3)

Jerryc Tabs
 Rating:
4.2/5 (5 votes)
Wedding In The Dream lessons Tabs too difficult? Try these video lessons and learn fast
                sorry, this tab is unfinished. ill keep trying to add more. by the way, this is the 
version of "Wedding In The Dream" for you begginners/intermediates. Theres more advanced 
in this song


E|-----------------------------------------11~-----------------|
B|-------8~----------------------------------------------------|
G|-------------------------------------------------------------|
D|-------------------------------------------------------------|
A|-------------------------------------------------------------|
E|-------------------------------------------------------------|

E|-------13~-------------------------------11~----------------------|
B|------------------------------------------------------------------|
G|-----------------------------------------------7------------------|
D|-----------------------------------------------7--(Let ring)---\--|
A|-----------------------------------------------5------------------|
E|------------------------------------------------------------------|

E|-------------------------------------------------------------|
B|-------------------------------------------------------------|
G|---7------5------3------2------------------------------------|
D|---7------5------3------2------------------------------------|
A|---5------3------1------0------------------------------------|
E|-------------------------------------------------------------|

E|-------------------------------------------------------------|
B|-------------------------------------------------------------|
G|----7~----------7-6-7~----------7-6-7~------------8-7-8~-----|
D|---------5--8------------5--8-----------5--8-----------------|
A|-------------------------------------------------------------|
E|-------------------------------------------------------------|

E|-------------------------------------------------------------|
B|-------------------------------------------------------------|
G|----------8-7-8~--8-7-8--10-10--12-10-12---10-7~-------------|
D|----5--8-----------------------------------------------------|
A|-------------------------------------------------------------|
E|-------------------------------------------------------------|

E|-------------------------------------------------------------|
B|----15~--------15-14-15~---------15-14-15~--------16-15-16~--|
G|--------12-15-------------12-15------------12-15-------------|
D|-------------------------------------------------------------|
A|-------------------------------------------------------------|
E|-------------------------------------------------------------|

E|-------------------------------------------------------------|
B|-----------16-15-16~--16-15-16--18-18--18-20-18-----18-15~~--|
G|----12-15----------------------------------------------------|
D|-------------------------------------------------------------|
A|-------------------------------------------------------------|
E|-------------------------------------------------------------|

E|---18----------------------17-15-17--------------------------|
B|--------15-15-16-----13--------------13-13-15-15-------------|
G|-------------------------------------------------------------|
D|-------------------------------------------------------------|
A|-------------------------------------------------------------|
E|-------------------------------------------------------------|

E|---------15-13-15--------------------------------------------|
B|--------------------------13-13----------13------15~~~-------|
G|---15--------------15-15------------15-----------------------|
D|-------------------------------------------------------------|
A|-------------------------------------------------------------|
E|-------------------------------------------------------------|

E|----18---18-18-20-20---18-17-15-13--13-15-13-----------------|
B|--------------------------------------------15(optional bend)|
G|-------------------------------------------------------------|
D|-------------------------------------------------------------|
A|-------------------------------------------------------------|
E|-------------------------------------------------------------|

E|----18---18-18-20-20---18-17-15-13---13-15-13-15~~~----------|
B|-------------------------------------------------------------|
G|-------------------------------------------------------------|
D|-------------------------------------------------------------|
A|-------------------------------------------------------------|
E|-------------------------------------------------------------|

Some sweep picking......then,
(remember, not same as the real version!)

E|-------------------------------------------------------------|
B|-------------------------------------------------------------|
G|----7~----------7-6-7~----------7-6-7~------------8-7-8~-----|
D|---------5--8------------5--8-----------5--8-----------------|
A|-------------------------------------------------------------|
E|-------------------------------------------------------------|

E|-------------------------------------------------------------|
B|-------------------------------------------------------------|
G|----------8-7-8~--8-7-8--10-10--12-10-12---10-7~-------------|
D|----5--8-----------------------------------------------------|
A|-------------------------------------------------------------|
E|-------------------------------------------------------------|

E|-------------------------------------------------------------|
B|----15~--------15-14-15~---------15-14-15~--------16-15-16~--|
G|--------12-15-------------12-15------------12-15-------------|
D|-------------------------------------------------------------|
A|-------------------------------------------------------------|
E|-------------------------------------------------------------|

E|-------------------------------------------------------------|
B|-----------16-15-16~--16-15-16--18-18--18-20-18-----18-15~~--|
G|----12-15----------------------------------------------------|
D|-------------------------------------------------------------|
A|-------------------------------------------------------------|
E|-------------------------------------------------------------|

E|---18----------------------17-15-17--------------------------|
B|--------15-15-16-----13--------------13-13-15-15-------------|
G|-------------------------------------------------------------|
D|-------------------------------------------------------------|
A|-------------------------------------------------------------|
E|-------------------------------------------------------------|

E|---------15-13-15--------------------------------------------|
B|--------------------------13-13----------13------15~~~-------|
G|---15--------------15-15------------15-----------------------|
D|-------------------------------------------------------------|
A|-------------------------------------------------------------|
E|-------------------------------------------------------------|

E|----18---18-18-20-20---18-17-15-13--13-15-13-----------------|
B|--------------------------------------------15(optional bend)|
G|-------------------------------------------------------------|
D|-------------------------------------------------------------|
A|-------------------------------------------------------------|
E|-------------------------------------------------------------|

E|----18---18-18-20-20---18-17-15-13---13-15-13-15~~~----------|
B|-------------------------------------------------------------|
G|-------------------------------------------------------------|
D|-------------------------------------------------------------|
A|-------------------------------------------------------------|
E|-------------------------------------------------------------|

(theres some sweeping in between this ^)

thats all i found out
            
Submit corrections

comments powered by Disqus
↑ Back to top | Jerryc Tabs for Wedding In The Dream. Lyrics for acoustic guitar and electric guitar. Tablatures and chords are parodies/interpretations of the original songs. You may use it for private study, scholarship, research or language learning purposes only