» » »

Wedding In The Dream Tabs (ver.2)

Artists:  A B C D E F G H I J K L M N O P Q R S T U V W X Y Z # 

Wedding In The Dream Tabs (ver.2)

Jerryc
Rating:
0/5 (0 votes)

Hard to play? Try these video lessons and learn fast.
                (Intro)
~ - Vibrato
\ - Slide down


E|-----------------------------------------11~-----------------|
B|-------8~----------------------------------------------------|
G|-------------------------------------------------------------|
D|-------------------------------------------------------------|
A|-------------------------------------------------------------|
E|-------------------------------------------------------------|



E|-------13~-------------------------------11~----------------------|
B|------------------------------------------------------------------|
G|-----------------------------------------------7------------------|
D|-----------------------------------------------7--(Let ring)---\--|
A|-----------------------------------------------5------------------|
E|------------------------------------------------------------------|

E|-------------------------------------------------------------|
B|-------------------------------------------------------------|
G|---7------5------3------2------------------------------------|
D|---7------5------3------2------------------------------------|
A|---5------3------1------0------------------------------------|
E|-------------------------------------------------------------|

He used his tremolo arm in this part ^
            
Hard to play? Try these video lessons and learn fast. | Correct




comments powered by Disqus
↑ Back to top | Tablatures and chords are parodies/interpretations of the original songs. You may use it for private study, scholarship, research or language learning purposes only