» » »

Bumuhos Man Ang Ulan Tabs (ver.2)

Artists:  A B C D E F G H I J K L M N O P Q R S T U V W X Y Z # 

Bumuhos Man Ang Ulan Tabs (ver.2)

Jericho Rosales
Rating:
0/5 (0 votes)

Hard to play? Try these video lessons and learn fast.
                
Tuning: Standard

Hello! Since most people who watched my cover
this song, I decided to make this tab. I'm
not sure about the real chords of the song, but this is how I play it.

INTRO:

    C
e|---3-----3--7---8-----------3-----3--7---8--15---|
B|--5--3-5-----------5--3----5--3-5----------------|
G|--5-5--5--5---5----5-------5-5--5--5---5---------|
D|--------4------------------------4---------------|
A|--3----3-----------3-------3----3----------------|
E|-------------------------------------------------|

   F         C      F         G
e|------1--------0------1--------3--------|
B|----1--------1----------1---3-----------|
G|--2--2--2--0--0-----2----2---0----------|
D|---3--------2-----3--3-3----------------|
A|-----------3-------3--------------------|
E|--1---------------1---------3-----------|

C        Am
  Oooh, oooh
F        G
  Oooh, oooh

Verse 1:
   C              G
Magtatagpo din tayo
    Am               F
Magkaiba man ang mundo
   C              Am
Magkalayo man ngayon
                F-G
Marami mang hadlang


Verse 2: (same chords as verse 1)

Magtatagpo din tayo
Alam kong ako'y lumisan
Hindi din kita iniwan
Kahit kailan

Chorus:

   C          G   Am              F
At hahagkan kita nang walang hanggan
   C              Am                F-G
Bumuhos man ang ulan na walang hanggan
   C           G   Am              F
At yayakapin kita nang walang hanggan
   C              Am                F-G
Bumuhos man ang ulan na walang hanggan
                  C
Bumuhos man ang ulan..

Coda:

   F          G
Hindi na, hindi na
   C              G
Bumuhos man ang ulan
   F          G
Hindi na, hindi na
 C          G   A
Magpakailanma...an

Chorus: (2 frets higher)

   D          A   Bm              G
At hahagkan kita nang walang hanggan
   D              Bm                G-A
Bumuhos man ang ulan na walang hanggan
   D           A   Bm              G
At yayakapin kita nang walang hanggan
   D              Bm                G-A
Bumuhos man ang ulan na walang hanggan
                  D
Bumuhos man ang ulan..

Outro:

    D
e|---5-----5--9---10----------5-----5--9---10--17--|
B|--7--5-7-----------7--5----7--5-7----------------|
G|--7-7--7--7---7----7-------7-7--7--7---7---------|
D|--------6------------------------6---------------|
A|--5----5-----------5-------5----5----------------|
E|-------------------------------------------------|

   G         D      G         A
e|------3--------2------3--------5--------|
B|----3--------3----------3---5-----------|
G|--4--4--4--2--2-----4----4--6-----------|
D|---5--------0-----5--5-5------7---------|
A|-----------0-------5--------------------|
E|--3---------------3---------5-----------|

                  D
Bumuhos man ang ulan..
            
Hard to play? Try these video lessons and learn fast. | Correct




comments powered by Disqus
↑ Back to top | Tablatures and chords are parodies/interpretations of the original songs. You may use it for private study, scholarship, research or language learning purposes only