» » »

Jericho Rosales, Pusong Ligaw Tabs (ver.1)

Artists:  A B C D E F G H I J K L M N O P Q R S T U V W X Y Z # 

Pusong Ligaw Tabs (ver.1)

Jericho Rosales Tabs
 Rating:
3.3/5 (13 votes)
Pusong Ligaw lessons Tabs too difficult? Try these video lessons and learn fast
                
        I have decided to tab this song because some of my friends always bug me to tab it. 
So I hope you like it guys! Please leave any comments or suggestions or any reactions about 
tab. And please rate it. Hehehe. Let us not be shy to share our God-given talents! 
Godbless! (//_n)

Note: please study the tabulature while listening to the music...an Mp3 will do…


Tuning: Standard (EADGBe)


Chord Diagram:

    C9         G         Em7        D/F#      (Em)        Dsus
e---3---   e---3---   e---3---   e---3---   e---3---   e---3---|
B---3---   B---3---   B---3---   B---3---   B---3---   B---3---|
G---0---   G---0---   G---0---   G---2---   G---0---   G---2---|
D---x---   D---0---   D---2---   D---0---   D---2---   D---0---|
A---3---   A---x---   A---2---   A---0---   A---0---   A---x---|
E---x---   E---3---   E---0---   E---2---   E---0---   E---x---|

Intro: (this is actually two guitars pero pinagsama ko na sila. It sounds much
        better for a single guitar)

     G                                    D/F#
e----------------------3------------------------------------5--------------|
B-------------3----------------3-------------------3----------------3------|
G-----0—-0------0----0---0---0---0—-0------0—-0------0----0---0---0---0—-0-|
D---5--5-----------5-------5-------5-----4--4-----------4-------4-------4--|
A--------------------------------------------------------------------------|
E--------------------------------------------------------------------------|

    C                                G
e-------3--3------5-------3--------------------------3----------|
B----------------------------------------3---3---------------3--|
G-----0--0--0---0---0---0---0---0------0---0---0---0---0---0----|
D---------------------------------------------------------------|
A---3---------3-------3-------3---------------------------------|
E------------------------------------3-----------3-------3------|


Verse 1: (Guitar 1 play the intro)

di kita malimutan
sa mga gabing nagdaan
ikaw ang pangarap
nais kong makamtan
sa buhay ko ay
ikaw ang kahulugan

*in this part of verse 1 play this along with the intro

Guitar 2:
          G                  D/F#               C9                  G
e------------------------------------------------------------------------------|
B------------------------------------------------------------------------------|
G------------------------------------------------------------------------------|
D----------------------------------------5555555555555555*---------------------|
A---5555555555555555*--555555555555555*--3333333333333333*--5555555555555555*--|
E---3333333333333333*--222222222222222*---------------------3333333333333333*--|
“* = palm mute”
 *

pag-ibig ko'y
walang kamatayan
ako'y umaasang
muli kang mahagkan


Interlude: (play the intro)

Chorus:

      C9 Dsus           G  D/F#  Em7
ikaw parin ang hanap ng pusong ligaw
           C9       Dsus            G
ikaw ang patutunguhan at pupuntahan
         C9 Dsus          G  D/F#  Em7
pag-ibig mo  ang hanap ng pusong ligaw
       C9     Dsus         G
mula noon, bukas at kailanman


Repeat intro

Verse 2: Guitar 1 do the intro
         Guitar 2 do the verse chords

         G
ikaw at ako'y
       D/F#
sinulat sa mga bituin
        C9                         G
at ang langit sa gabi ang sumasalamin
              G       D/F#
mayroong lungkot at pananabik
      C9                         G
kung wala ka'y kulang ang mga bituin


(in this part Guitar 1 and Guitar 2 both play the chords at the same time)

      Em7   (Em)
aasa ako, babalik
      C9  Dsus       G
ang ligaya, aking mithi
               Em7
hanggang sa muling
    (Em)
pagkikita
    C9  Dsus       G
sasabihing mahal kita
Chorus:


      C9 Dsus           G  D/F#  Em7
ikaw parin ang hanap ng pusong ligaw
           C9       Dsus            G
ikaw ang patutunguhan at pupuntahan
         C9 Dsus          G  D/F#  Em7
pag-ibig mo  ang hanap ng pusong ligaw
       C9     Dsus         G
mula noon, bukas at kailanman
       C9     Dsus         G
mula noon, bukas at kailanman
       C9     Dsus         G
mula noon, bukas at kailanman


Outro:


     G                                    D/F#
e----------------------3------------------------------------5--------------|
B-------------3----------------3-------------------3----------------3------|
G-----0—-0------0----0---0---0---0—-0------0—-0------0----0---0---0---0—-0-|
D---5--5-----------5-------5-------5-----4--4-----------4-------4-------4--|
A--------------------------------------------------------------------------|
E--------------------------------------------------------------------------|

    C                                G
e-------3--3------5-------3----------3---|
B------------------------------------3---|
G-----0--0--0---0---0---0---0---0----0---|
D------------------------------------0---|
A---3---------3-------3-------3------x---|
E------------------------------------3---|


That’s all guys!!!! Hope you like it!!! Please don’t forget to rate and leave some 
Godbless you all!!! It’s 99.9% I think…hehehe its for you to decide!!! Thank You Verymuch!!!! 

Band: Standupon
Members:
Christopher Estaniel – Vocals
Mark Daniel Cerezo – Lead
Jemilray Pabuaya – Rhythm
Jephtah Cabigon – Bass
Mac Jeffrey Pattaui – Drums

Special Mentions:
Armando “jan2” Mendoza – Manager (since the band is shrink and shine)
Jared Mark Bacoli - Adviser
Shan Macaraan – Vocals(sessionista)
Victor Tonato – Shadow Guitarist
Titus Sazon – Percussionist
Ptr. Levi Gene Posadas – Director
Ptr. Christian Siozon – Praise Team Leader
Ptr. Cleart Cabfit – Adviser
            
Submit corrections

comments powered by Disqus
↑ Back to top | Jericho Rosales Tabs for Pusong Ligaw. Lyrics for acoustic guitar and electric guitar. Tablatures and chords are parodies/interpretations of the original songs. You may use it for private study, scholarship, research or language learning purposes only