>
 >
Satisfied Mind 1

Satisfied Mind 1 Guitar Tabs

Jeff Buckley - Satisfied Mind 1 chords, tabs, tablatures, lyrics

Guitar lessons | Add/correct | Request | Top 50 tabs Artists:  A B C D E F G H I J K L M N O P Q R S T U V W X Y Z 0-9

Satisfied Mind 1 Guitar Tabs – Jeff Buckley

CD, Sheet music, Poster

Do you like Satisfied Mind 1? Share with your friends now
ChordsChords v2TabsTabs v2Ukulele
I typed this up on GP3, and it only took me... drumroll,
bloody hours!!! So i thought i may aswell share it with
the rest of you.  Sorry for the strange format, but
blame GP3!  If you want the GP3 file or the MIDI file,
help you.  If you wish to use this tab on a site or
claim credit for it, please inform me before hand.
Thanks!  Oh, and i just noticed a few notes are missing,
but thats also because of GP3.  Email me for help if you
need to be completely accurate with this song :P.  Enjoy!

                                                                  
E||--------------------|----------0------0--|--0----0------------|
B||------------5-------|--7-------2------2--|--0----0--3---------|
G||--6-------6---------|--7-----------------|--1----1--2------2--|
D||--------7-----------|----------2----2----|----------0----0----|
A||--0---0----------0--|--0----0-----0------|--------------------|
E||--------------------|--------------------|--4-------0--2------|


                                                                         
------------------------|-----------------------|-----------------------|
--------5~--------------|-------------5---------|------5------5---------|
------6------7--7h6-7-6-|-----------6---6---6---|----4------4------4----|
----7--------7----------|--7------7-------7-----|--6------6------6---6--|
--0--------0------------|-------0-------------0-|-----------------------|
------------------------|-----------------------|-----------------------|


                                                                        
-----------------5-----|-----------------------0-|-----------5---------|
--3-------3--------5-5-|--------------7------7-5-|--5---5-5--5--7--9---|
-----2-------9/7-----5-|--6-6-6-------7--7---7-6-|--6---6-6--6--7--9---|
--4-----4--------------|-----------7--7----7-7---|--7---7-7--7--9--11--|
-----------------------|--0-----0----------------|--0-----0------------|
-----------------------|-------------------------|-----------5--7--9---|


                                                           
---------0--0---------0----0------|-----------------------|
--10-----10-10--10----10---10-10--|--7----7-7-------------|
--11-----11-11--9-----9----9--9---|--7----7-7---7/5b------|
--12--------12--11----11---11-11--|--9----9-9-------7h5-7-|
----------------------------------|-----------------------|
--10--10-10-10--9---9----9----9---|--7--7---7-------------|


                                                                     
----------------------|--------------------|------------------------|
--10~-------------7-7-|--5-----5-----------|------------------------|
--------7r--------7-7-|--6-----6----6---9--|---------7-----7-----7/-|
----------7h5-----7-7-|--7-----7-----------|-------6---6-6---6------|
--------------7-------|-----0-----0-4---7--|-----7-------------7----|
----------------------|--------------------|--0---------------------|


                                                                              
-----------------------|--------------------------|--------------------------|
--------7--------------|------2-----------3-----3-|------5-----5-----8---8---|
------7---7---7--6--4--|--------2---2---0-----0---|--------0-----------------|
----7-------7----------|----2-----2---4-----4-----|----5-----5-----9---9---9-|
--5-----------5--4--2--|--0-----------------------|--0-----------0-----------|
-----------------------|--------------------------|--------------------------|


                                                                              
---------------------------------|---------------------------|---------------|
-------10----10-------12---8-----|--8------8------8/7-----7--|---------------|
-------------------------------0-|-------0------0-----0------|--9b-----------|
----11----11----11-12----9---9---|----------------------9----|--9b-----------|
--0----------------0-------------|----10-----10--------------|---------------|
---------------------------------|---------------------------|---------------|


                                                               
-----2-----0--------|--0-----------------|-----------5--------|
--------3-----2-----|-----0-----3-----3--|-----------5--------|
-----------------2--|--------1-----2-----|-----------7--------|
--0--------2--------|--2--------0--------|-----------7--------|
--------------------|--------------------|--0----0-0-0--0--0--|
--------------------|--------------------|--------------------|


                                                                
--5---5-5-----------|--------------------|---------------------|
--5---5-5-----------|-----------5---5-5--|---------------------|
--6---6-6-------6-6-|-----------7---7-7--|----------11--9---7--|
--7---7-7--7----7-7-|-----------6---6-6--|--12------12--11--9--|
--0--------0----0-0-|-------7-7-7---7-7--|--12------12--12--9--|
--------------------|--0----0-0----------|--10------10--9---7--|


                                                                                
-------------------------|---------------|--2------0-----0-|--0---0-0--2-------|
-----5--5-5--------------|--8b-----------|--3------2-----2-|--0---0-0--3-------|
-----6--6-6-5b-----7r7h5-|---------------|--2------2-----2-|--1---1-1--2-------|
--7--7--7-7---7----------|---------------|--0------2-----2-|--2---2-2--0-------|
--7--7--7-7-----0--------|---------------|-----------------|-------------------|
--5----------------------|---------------|-----------------|--------------2----|


                                                                            
-------0---------0-----0-|------5-----------------|------------------------|
-----2-----2-3-3-----3---|----------5---5---5-----|---------5---------5----|
---------2---2-----2-----|----6---6---6---6-------|-------7---------7---7--|
-------------------------|---------------------6--|-----6-----6---6--------|
--0----------------------|--0---------------------|--7----------7----------|
-------------------------|------------------------|------------------------|


                                                                             
-----------------------------|--0------0-0----------7-|--5~------0--0-0-0-0-|
-----10----10----------------|--5------5-5-7------7-7-|--5~------5--5-5-5-5-|
-----11-11-11-11--11--9---7--|--6--6-6-6-6-7--7-7-7-7-|--5~------6--6-6-6-6-|
-----12-12-12-12--12--11--9--|--7--7-7-7-7-7--7-7-7---|--5~------5--5-5-5-5-|
-----------------------------|--0--0-0-0---0--0-0-0---|--0~---0--0--0-0-0-0-|
--10--------------10--9---7--|------------------------|---------------------|


                                                                     
--0--0-0-0-0-0--0-0-0-0-|--0--0-0-0-0-0--0-0-0---|------------------|
--5--5-5-5-5-5--5-5-5-5-|--5--5-5-5-5-5--5-5-5-3-|-----7------------|
--6--6-6-6-6-6--6-6-6-6-|--6--6-6-6-6-6--6-6-6-0-|--7--7----6-----0-|
--5--5-5-5-5-5--5-5-5-5-|--5--5-5-5-5-5--5-5-5-0-|--7--7----7-----0-|
--0--0-0-0-0-0--0-0-0-0-|--0--0-0-0-0-0--0-0-0---|--5-------7-----0-|
------------------------|------------------------|----------5-------|


                                                                   
--0---0-0---------|-------------5---5-----5-|--5~-----------------|
--0---0-0----3----|-----------5-5-5---5-5-7-|--5~-----------------|
--1---1-1----2----|-----6-------7-----------|--5~---6--------6-6--|
--2---2-2----0----|-------7-7---------------|---------5--5---5-5--|
--2---------------|--7----------------------|-----0----------0-0--|
--0---------------|--5----------------------|---------------------|


                                                                              
-------------0--------|-------------------------------|-----------5--5-5-----|
--5--------5---5------|--10----------10---------------|--------5--5--5-5---5-|
---------7-------7----|-----11----11----11-11--9---7--|-----------7--7-7---7-|
-------6-----------6--|--------12----------12--11--9--|-----7-----7--7-7---7-|
--7-------------------|-------------------------------|--0--------7------0---|
----------------------|--10----------------10--9---7--|-----------5----------|


                                                              
--5----5--5-5--5--5--|----------0----0---|--0-0-0/-----------|
--5----5--5-5--5--5--|--7----7--5----5-0-|--5-5-5/---3--3----|
--6----6--6-6--6--6--|--7----7--6----6-0-|--4-4-4/---2--2----|
--7----7--7-7--7--7--|--7----7--7----7-0-|--6-6-6/---4--4----|
--0--0------0--0--0--|--5----5--0----0---|--7---7/---5--5----|
---------------------|-------------------|--0---0/-----------|


                                                                  
---------5--------------|-------------------|--------------------|
----------------5---5---|--5--------5-------|-------------5-5----|
-------6-----7--7---7---|--6--------6-------|-------------7-7----|
-------------7--7---7---|--7--------7-------|----------6--6-6----|
--0--7-----0------0---0-|--0--0-0---0----0--|--7--------------7--|
------------------------|-------------------|-------0------------|


                                                                           
-------------------------|--0----0-0-0-0--0-0-0--|--0--0-0-0-0-0--0-0-0-0-|
--------------10--10-----|--5----5-5-5-5--5-5-5--|--5--5-5-5-5-5--5-5-5-0-|
--11--12-11---11--9---7--|--6----6-6-6-7--7-7-7--|--6--6-6-6-6-7--7-7-7-0-|
--12--12-12---12--11--9--|--7----7-7-7-7--7-7-7--|--7--7-7-7-7-7--7-7-7---|
--12--12-12--------------|-----0-------0------0--|--0--0-0-0-0-0--0-0-0---|
--10----------10--9---7--|-----------------------|------------------------|


                                                                   
-------------------|-------0--0-0-----------|-------5-------------|
--7--7--7--7----7--|--2----2--2-2-----------|-------5-5--5-----5--|
--7--7--7--7----7--|--2----2--2-2---2-------|-----6---6--6-----6--|
--7--7--7--7----7--|--2---------2---4-2-----|-----7------7-----7--|
--0--0--0--0----0--|-----0------0-4-----5-4-|--0------------0-----|
-------------------|------------------------|---------------------|


                                                                  
---------0-0--0--0--|-------------------|-----------5------------|
---------5-5--5--5--|--10----10----7----|-----------5------------|
---------7-7--7--7--|--11----11----7----|--6--------6------------|
----6----6-6--6--6--|--12----12----9----|--7------------7-9r-9h7-|
--7------7-7--7--7--|--12----12----9----|--7------------7--------|
--------------------|--10----10----7----|--5--5--5----9----------|


                                                                      
----------------|--------5-----------0-----|--0-----0----------------|
--10------------|------7---7-----2-----2---|----0-----0---3----------|
----------------|----7-------7-----2-----2-|------1-----1---2---2----|
----------------|--7-----------2-----------|--2---------------4---4--|
----------------|--------------------------|--------------5----------|
----------------|--------------------------|-------------------------|


                                                                             
----------5-------5-----5-|--5-----------5----------|-----------------------|
--------5-------5-----5---|----5-------5---5--------|--------5-------5------|
------6-----6-7-----7-----|------6---6-------6---6--|----7-------7-----7----|
----7---------------------|--------7-----------7----|------6---6------------|
--0-----------------------|--0----------------------|--7-----------7--------|
--------------------------|-------------------------|--------0--------------|


                                                                               
-------------------------------|-----------5--5--5---|------------------------|
--10-------10-------10--9---7--|--5--------7--7--7---|--5--------5------------|
--------11-------11-11--9---7--|--6--------7--7--7h6-|--6------6---6---6---6--|
-----12-------12----12--11--9--|--7--------7--7--7---|--7----7-------7---7----|
-------------------------------|-------7-7-----------|--7---------------------|
--10----------------10--9---7--|--5----5-5-----------|--5--5------------------|


                                                               
------------------|--0------------------|--0----0--0--0-0-0-7-|
--7--------5------|----0--------3-------|--5----5--5--5-5-5-7-|
--------7---------|------1---1----------|--6----6--7--6-6-6-7-|
-----7------------|--------2----0----0--|--7----7--7--7-7-7---|
--5--------7------|--0------------------|--0-------0----------|
------------------|---------------------|---------------------|


                                                                     
--5~-------------------|--------------------|-----------------------|
--5~--7r-7h5-----------|--5--------5--5--5--|----------------10--7--|
--6~---------7-7h-6----|--7-7---7--7--7--7--|--11----11--11--9---7--|
-----------------------|--6-6---6--6--6--6--|--12----12--12--11--9--|
----0------------------|--7-7---7--7--7--7--|--12----12--12--12--9--|
-----------------------|--0-0---0--0--0--0--|--10----10------9---7--|


                                                                
--0--0-0-0---0--0--0-0-|--0----0--0-0----0--|-----------0------|
--5--5-5-5---5--5--5-5-|--5----5--5-5----5--|--------5--5------|
--6--6-6-6---7--7--7-7-|--6----6--6-6----6--|-----7--7--7------|
--7--7-7-7---7--7--7---|--5--5-5--5-5----5--|-----6--6--6------|
--0--0-0-0-0-0--0--0---|--0--0------0----0--|--7--7--7--7------|
-----------------------|--------------------|--0---------------|


                                                                                
----------------|------------------5--|-------------------|--------------------|
--7------7------|--5---5-----5-----5--|--5--5-5--------5--|--7----7--5--5-5-5--|
--7------7------|--6---6-----7---7-7--|--6--6-6--------6--|--7----7--7--7-7-7--|
--7------7------|--7---7-7-7-7---7-7--|--7--7-7--------7--|--7----7--6--6-6-6--|
--5------5------|--7-----7-7-----7-7--|--7--7-7--------7--|----------7--7-7-7--|
----------------|--5-----5-5----------|--5--5-5---5----5--|--------------------|


                                                                 
-----------------|---------------|--------|---------------------|
-----------------|------7--------|--------|--5------------------|
--11----------9--|------7--------|--------|-----6-----7---------|
--12-------------|------9--------|--------|--------7-----7----7-|
--12-------------|---------------|--------|--0--------------9---|
--10----------9--|------7--------|--------|---------------------|


                    
-----------5------||
------------------||
--------6---------||
-----7------------||
--0---------------||
------------------||


---------------------------------------------
---------------------------------------------





Comments


Popular Jeff Buckley tabs & chords
Hallelujah 3 Chords
Hallelujah 6 Chords
Calling You Tabs
Calling You 1 Tabs
Hallelujah 3 Tabs
Hallelujah 4 Tabs
Hallelujah 5 Tabs
Mojo Pin Tabs
Sky Is A Landfill Tabs
Strange Fruit Tabs


Song lyrics



↑ Back to top | Tablatures and chords are parodies/interpretations of the original songs. You may use it for private study, scholarship, research or language learning purposes only
© 2014 AZChords.com Contact us | Privacy policy | DMCA | Add/correct tabs | Request tabs | Top 50 tabs