>
 >
Mojo Pin 1

Mojo Pin 1 Guitar Tabs

Jeff Buckley - Mojo Pin 1 chords, tabs, tablatures, lyrics

Guitar lessons | Add/correct | Request | Top 50 tabs Artists:  A B C D E F G H I J K L M N O P Q R S T U V W X Y Z 0-9

Mojo Pin 1 Guitar Tabs – Jeff Buckley

CD, Sheet music, Poster

Do you like Mojo Pin 1? Share with your friends now
Bass TabsTabsTabs v2
INTRO PART 1: - Clean.  Synth loop.
-------------

E|-<7>---------------------|
B|-----<7>~~~~~~~~~~~~~~~~-|
G|-------------------------|
D|-------------------------|
A|-------------------------|
D|-------------------------|

E|-<12>--------------------|
B|-----<12>~~~~~~~~~~~~~~~-|
G|-------------------------|
D|-------------------------|
A|-------------------------|
D|-------------------------|

E|-<7>---------------------|
B|-----<7>~~~~~~~~~~~~~~~~-|
G|-------------------------|
D|-------------------------|
A|-------------------------|
D|-------------------------|

E|-<5>---------------------|
B|-----<5>~~~~~~~~~~~~~~~~-|
G|-------------------------|
D|-------------------------|
A|-------------------------|
D|-------------------------|



INTRO PART 2: - Clean.  Let Ring.
-------------

E|-------3-----------3-----|
B|---1-----------1---------|
G|-----2-----------2-------|
D|-------------------------|
A|-3-----------3-----------|
D|-------------------------|
                            PLAY x8
E|-------0-----------------|/
B|---1-----------1---3p1---|
G|-----2-----------2-------|
D|-------------------------|
A|-0-----------0-----------|
D|-------------------------|



VERSE 1: - Clean.  Let ring.
--------

E|-------3-----------3-----|
B|---1-----------1---------|
G|-----2-----------2-------|
D|-------------------------|
A|-3-----------3-----------|
D|-------------------------|
                            PLAY x3
E|-------0-----------------|/
B|---1-----------1---3p1---|
G|-----2-----------2-------|
D|-------------------------|
A|-0-----------0-----------|
D|-------------------------|

E|-------3-----------3-----|
B|---1-----------1---------|
G|-----2-----------2-------|
D|-------------------------|
A|-3-----------3-----------|
D|-------------------------|

E|-5-----------------------|
B|--3----------------------|
G|---2---------------------|
D|----0--------------------|
A|-----0-------------------|
D|------0------------------|



VERSE 2: - Clean.  Let ring.  Pick up tempo a bit.
--------

E|-------3-----------3-----|
B|---1-----------1---------|
G|-----2-----------2-------|
D|-------------------------|
A|-3-----------3-----------|
D|-------------------------|
                            PLAY x5
E|-------0-----------------|/
B|---1-----------1---3p1---|
G|-----2-----------2-------|
D|-------------------------|
A|-0-----------0-----------|
D|-------------------------|

E|-------3-----------3-----|
B|---1-----------1---------|
G|-----2-----------2-------|
D|-------------------------|
A|-3-----------3-----------|
D|-------------------------|

E|-5-----------------------|
B|--3----------------------|
G|---2---------------------|
D|----0--------------------|
A|----0--------------------|
D|----0--------------------|

E|-------------------0-----|
B|--------------------0----|
G|---------------------0---|
D|----------------------3--|
A|-----------------------3-|
D|-------------------------|



CHORUS 1: - Clean.  Slow down the tempo.  Let ring.
---------

E|-----------0---------------0-0---|
B|-----------0---------------0-0-0-|
G|-----------0---------------0-0-0-|
D|---------------------------3-3-0-|
A|---------------------3-----3-3-0-|
D|-3-------------------------------|

E|---------------------------------|
B|-0h1-----1---1-1-1-1-1---1-1-1-1-|
G|-0h2-----2---2-2-2-2-2---2-2-2-2-|
D|-0---0---0---0-0-0-0-0---0-0-0-0-|
A|-0---0---------------------------|
D|-0---0---------------------------|

E|---------0---0-0-0-0-----0-0-0---|
B|---------0---0-0-0-0-----0-0-0-0-|
G|-0---0---0---0-0-0-0-----0-0-0-0-|
D|-3---3---3---3-3-3-3-3---3-3-3-0-|
A|-3-------------------3-----------|
D|-3-------------------3-----------|

E|-0-------0---0-0-0-0-0-0-0---0---|
B|-1-------1---1-1-1-1-1-1-1/3-3-0-|
G|-2-------2---2-2-2-2-2-2-2/4-4-0-|
D|-0-------0---0-0-0-0-0-0-0---0-0-|
A|---------------------------------|
D|---------------------------------|

E|---------0-----------0-0-0-0-0-0-|
B|---------0-----------0-0-0-0-0-0-|
G|-0-------0-----------0-0-0-0-0-0-|
D|-3-------3-----------3-3-3-3-3-3-|
A|-3-------------------------------|
D|-3-------------------------------|

E|-0-------0-----------0-0-0-0-0-0-|
B|-1-------1-----------3-3-3-3-3-3-|
G|-2-------2-----2-2/4-4-4-4-4-4-4-|
D|-0-------0-----0-0---0-0-0-0-0-0-|
A|---------------------------------|
D|---------------------------------|

E|-0-0-0-0-0-0-0-0-0-0-0-0-0-----2-------2---------|
B|-3/1-1-1-1-1-1-1-1-3-3-3-3-------3-------3-------|
G|-4/2-2-2-2-2-2-2-2-2-2-2-2---------0-------0-----|
D|-0-0-0-0-0-0-0-0-0-0-0-0-0-----------0-------0-0-|
A|-----------------0-2-2-2-2-----------------------|
D|-------------------------------------------------|

E|-0---0-0-0-0-0-0-0-0-0-0-0-0-0-0-|
B|-1---1-1-1-1-1-1-3-3-3-3-3-3-3-3-|
G|-2---2-2-2-2-2-2-4-4-4-4-4-4-4-4-|
D|-0---0-0-0-0-0-0-0-0-0-0-0-0-0-0-|
A|-0-------------------------------|
D|-0-------------------------------|

E|-0---0-0-0-0-0-0-2-----2-2-2-2---|
B|-3/1-1-1-1-1-1-1-1-----1-1-1-1---|
G|-4/2-2-2-2-2-2-2-2-----2-2-2-2---|
D|-0---0-0-0-0-0-0-0-----0-0-0-0---|
A|---------------------------------|
D|---------------------------------|

E|-2-------------------------------|
B|-1-------------------------------|
G|-2-------------------------------|
D|-0-------------------------------|
A|-0-------------------------------|
D|-0-------------------------------|



VERSE 3: - Clean.  Original tempo.
--------

E|-------3-----------3-----|
B|---1-----------1---------|
G|-----2-----------2-------|
D|-------------------------|
A|-3-----------3-----------|
D|-------------------------|
                            PLAY x11
E|-------0-----------------|/
B|---1-----------1---3p1---|
G|-----2-----------2-------|
D|-------------------------|
A|-0-----------0-----------|
D|-------------------------|

E|-------3-----------3-----|
B|---1-----------1---------|
G|-----2-----------2-------|
D|-------------------------|
A|-3-----------3-----------|
D|-------------------------|

E|-5-----------------------|
B|--3----------------------|
G|---2---------------------|
D|----0--------------------|
A|----0--------------------|
D|----0--------------------|

E|-------------------0-----|
B|--------------------0----|
G|---------------------0---|
D|----------------------3--|
A|-----------------------3-|
D|-------------------------|



CHORUS 2: - Clean.  Slow down the tempo.  Let ring.
---------

E|-----------0---------------0-0---|
B|-----------0---------------0-0-0-|
G|-----------0---------------0-0-0-|
D|---------------------------3-3-0-|
A|---------------------3-----3-3-0-|
D|-3-------------------------------|

E|---------------------------------|
B|-0h1-----1---1-1-1-1-1---1-1-1-1-|
G|-0h2-----2---2-2-2-2-2---2-2-2-2-|
D|-0---0---0---0-0-0-0-0---0-0-0-0-|
A|-0---0---------------------------|
D|-0---0---------------------------|

E|---------0---0-0-0-0-----0-0-0---|
B|---------0---0-0-0-0-----0-0-0-0-|
G|-0---0---0---0-0-0-0-----0-0-0-0-|
D|-3---3---3---3-3-3-3-3---3-3-3-0-|
A|-3-------------------3-----------|
D|-3-------------------3-----------|

E|-0-------0---0-0-0-0-0-0-0---0---|
B|-1-------1---1-1-1-1-1-1-1/3-3-0-|
G|-2-------2---2-2-2-2-2-2-2/4-4-0-|
D|-0-------0---0-0-0-0-0-0-0---0-0-|
A|---------------------------------|
D|---------------------------------|

E|---------0-----------0-0-0-0-0-0-|
B|---------0-----------0-0-0-0-0-0-|
G|-0-------0-----------0-0-0-0-0-0-|
D|-3-------3-----------3-3-3-3-3-3-|
A|-3-------------------------------|
D|-3-------------------------------|

E|-0-------0-----------0-0-0-0-0-0-|
B|-1-------1-----------3-3-3-3-3-3-|
G|-2-------2-----2-2/4-4-4-4-4-4-4-|
D|-0-------0-----0-0---0-0-0-0-0-0-|
A|---------------------------------|
D|---------------------------------|

E|-0---0-0-0-0-0-0-0-0-0-0-0-----2-------2---------|
B|-3/1-1-1-1-1-1-1-1-3-3-3-3-------3-------3-------|
G|-4/2-2-2-2-2-2-2-2-2-2-2-2---------0-------0-----|
D|-0---0-0-0-0-0-0-0-0-0-0-0-----------0-------0-0-|
A|-----------------0-2-2-2-2-----------------------|
D|-------------------------------------------------|

E|-0---0-0-0-0-0-0-0-0-0-0-0-0-0-0-|
B|-1---1-1-1-1-1-1-3-3-3-3-3-3-3-3-|
G|-2---2-2-2-2-2-2-4-4-4-4-4-4-4-4-|
D|-0---0-0-0-0-0-0-0-0-0-0-0-0-0-0-|
A|-0-------------------------------|
D|-0-------------------------------|
 
                                               _3_
E|-0-0-0-0-0-0-0-0-2-----2-2-----2-2-----2-2---000-|
B|-1-1-1-1-1-1-1-1-1-----1-1-----1-1-----1-1---111-|
G|-2-2-2-2-2-2-2-2-2-----2-2-----2-2-----2-2---222-|
D|-0-0-0-0-0-0-0-0-0-----0-0-----0-0-----0-0---000-|
A|-------------------------------------------------|
D|-------------------------------------------------|



BREAK: - Distorted.
------

   _3_     _3_     _3_     ___3__
E|-000-0---000-0---000-0----0-0-0--0-|
B|-111-1---333-3---666-6---101010-10-|
G|-222-2---444-4---777-7---111111-11-|
D|-000-0---000-0---000-0----0-0-0--0-|
A|-----------------------------------|
D|-----------------------------------|

   _3_     _3_     _3_     ___3__
E|-000-0---000-0---000-0----0-0-0--0-|
B|-111-1---333-3---666-6----9-9-9--9-|
G|-222-2---444-4---777-7---101010-10-|
D|-000-0---000-0---000-0----0-0-0--0-|
A|-----------------------------------|
D|-----------------------------------|

   _3_     _3_     _3_     ___3__
E|-000-0---000-0---000-0----0-0-0--0-|
B|-111-1---333-3---666-6---101010-10-|
G|-222-2---444-4---777-7---111111-11-|
D|-000-0---000-0---000-0----0-0-0--0-|
A|-----------------------------------|
D|-----------------------------------|

   _3_     _3_     _3_
E|-000-0---000-0---000-0-|
B|-111-1---333-3---666-6-|
G|-222-2---444-4---777-7-|
D|-000-0---000-0---000-0-|
A|-----------------------|
D|-----------------------|

E|-2-------------------------------|
B|-3-------------------------------|
G|-2-------------------------------|
D|-0-------------------------------|
A|---------------------------------|
D|---------------------------------|



VERSE 4: - Clean.  Original tempo.
--------

E|-------3-----------3-----|
B|---1-----------1---------|
G|-----2-----------2-------|
D|-------------------------|
A|-3-----------3-----------|
D|-------------------------|
                            PLAY x7
E|-------0-----------------|/
B|---1-----------1---3p1---|
G|-----2-----------2-------|
D|-------------------------|
A|-0-----------0-----------|
D|-------------------------|

E|-------3-----------3-----|
B|---1-----------1---------|
G|-----2-----------2-------|
D|-------------------------|
A|-3-----------3-----------|
D|-------------------------|

E|-5-----------------------|
B|--3----------------------|
G|---2---------------------|
D|----0--------------------|
A|----0--------------------|
D|----0--------------------|



CHORUS 3: - Distorted.  Let ring.  Slow down tempo slightly.
---------

E|-----------0---------------0-0---|
B|-----------0---------------0-0-0-|
G|-----------0---------------0-0-0-|
D|---------------------------3-3-0-|
A|---------------------3-----3-3-0-|
D|-3-------------------------------|

E|---------------------------------|
B|-0h1-----1---1-1-1-1-1---1-1-1-1-|
G|-0h2-----2---2-2-2-2-2---2-2-2-2-|
D|-0---0---0---0-0-0-0-0---0-0-0-0-|
A|-0---0---------------------------|
D|-0---0---------------------------|

E|---------0---0-0-0-0-----0-0-0---|
B|---------0---0-0-0-0-----0-0-0-0-|
G|-0---0---0---0-0-0-0-----0-0-0-0-|
D|-3---3---3---3-3-3-3-3---3-3-3-0-|
A|-3-------------------3-----------|
D|-3-------------------3-----------|

E|-0-------0---0-0-0-0-0-0-0---0---|
B|-1-------1---1-1-1-1-1-1-1/3-3-0-|
G|-2-------2---2-2-2-2-2-2-2/4-4-0-|
D|-0-------0---0-0-0-0-0-0-0---0-0-|
A|---------------------------------|
D|---------------------------------|

E|---------0-----------0-0-0-0-0-0-|
B|---------0-----------0-0-0-0-0-0-|
G|-0-------0-----------0-0-0-0-0-0-|
D|-3-------3-----------3-3-3-3-3-3-|
A|-3-------------------------------|
D|-3-------------------------------|

E|-0-------0-----------0-0-0-0-0-0-|
B|-1-------1-----------3-3-3-3-3-3-|
G|-2-------2-----2-2/4-4-4-4-4-4-4-|
D|-0-------0-----0-0---0-0-0-0-0-0-|
A|---------------------------------|
D|---------------------------------|

E|-0---0-0-0-0-0-0-0-0-0-0-0-----2-------2---------|
B|-3/1-1-1-1-1-1-1-1-3-3-3-3-------3-------3-------|
G|-4/2-2-2-2-2-2-2-2-2-2-2-2---------0-------0-----|
D|-0---0-0-0-0-0-0-0-0-0-0-0-----------0-------0-0-|
A|-----------------0-2-2-2-2-----------------------|
D|-------------------------------------------------|

E|-0---0-0-0-0-0-0-0-0-0-0-0-0-0-0-|
B|-1---1-1-1-1-1-1-3-3-3-3-3-3-3-3-|
G|-2---2-2-2-2-2-2-4-4-4-4-4-4-4-4-|
D|-0---0-0-0-0-0-0-0-0-0-0-0-0-0-0-|
A|-0-------------------------------|
D|-0-------------------------------|
 
                                               _3_
E|-0-0-0-0-0-0-0-0-2-----2-2-----2-2-----2-2---000-|
B|-1-1-1-1-1-1-1-1-1-----1-1-----1-1-----1-1---111-|
G|-2-2-2-2-2-2-2-2-2-----2-2-----2-2-----2-2---222-|
D|-0-0-0-0-0-0-0-0-0-----0-0-----0-0-----0-0---000-|
A|-------------------------------------------------|
D|-------------------------------------------------|



END: - Distorted.
----

   _3_     _3_     _3_     ___3__
E|-000-0---000-0---000-0----0-0-0--0-|
B|-111-1---333-3---666-6---101010-10-|
G|-222-2---444-4---777-7---111111-11-|
D|-000-0---000-0---000-0----0-0-0--0-|
A|-----------------------------------|
D|-----------------------------------|

   _3_     _3_     _3_     ___3__
E|-000-0---000-0---000-0----0-0-0--0-|
B|-111-1---333-3---666-6----9-9-9--9-|
G|-222-2---444-4---777-7---101010-10-|
D|-000-0---000-0---000-0----0-0-0--0-|
A|-----------------------------------|
D|-----------------------------------|

   _3_     _3_     _3_     ___3__
E|-000-0---000-0---000-0----0-0-0--0-|
B|-111-1---333-3---666-6---101010-10-|
G|-222-2---444-4---777-7---111111-11-|
D|-000-0---000-0---000-0----0-0-0--0-|
A|-----------------------------------|
D|-----------------------------------|

   _3_     _3_     _3_
E|-000-0---000-0---000-0-|
B|-111-1---333-3---666-6-|
G|-222-2---444-4---777-7-|
D|-000-0---000-0---000-0-|
A|-----------------------|
D|-----------------------|

E|-2-------------------------------|
B|-3-------------------------------|
G|-2-------------------------------|
D|-0-------------------------------|
A|-0-------------------------------|
D|-0-------------------------------|





Comments


Popular Jeff Buckley tabs & chords
Dream Brother Bass Tabs
All Flowers In Time Chords
Hallelujah 2 Chords
Corpus Christi Carol Tabs
Dreambrother Tabs
Eternal Life 2 Tabs
Eternal Life Live Tabs
Once I Was Tabs
Eternal Life Ukulele
I Know We Could Be So Happy Baby Ukulele


Song lyrics



↑ Back to top | Tablatures and chords are parodies/interpretations of the original songs. You may use it for private study, scholarship, research or language learning purposes only
© 2014 AZChords.com Contact us | Privacy policy | DMCA | Add/correct tabs | Request tabs | Top 50 tabs