» » »

Jeff Buckley, Forget Her Tabs (ver.2)

Artists:  A B C D E F G H I J K L M N O P Q R S T U V W X Y Z # 

Forget Her Tabs (ver.2)

Jeff Buckley Tabs
 Rating:
4/5 (5 votes)
Forget Her lessons Tabs too difficult? Try these video lessons and learn fast
                This I based on William Smith's tab of the same song, but modified it quite a bit.
It's not perfect, so you might want to tweak it a bit, but it's pretty close.
Hopefully i'll get the solo on soon, too. any questions, comments,etc, forward to

The intro sequence:

E--------------|--------------|    x 4
B--------------|--------------|
G------2-----2-|-----0--------|
D----2-----2---|---0-------3--|
A--0-----0-----|---------3----|
E--------------|-0-----3------|

Verse:

   Am
E---------0-------------0-------|   x 2
B---------—-1-------------1-----|
G-------2-----2-------2-----2---|
D-----2-------------2-----------|
A---0-------------0-------------|
E-------------------------------|


   Em
E-------------------------------|   x 2
B--------0--------------0-------|
G--------0--------------0-------|
D------2---2----------2---2-----|
A----2-------2------2-------2---|
E--0--------------0-------------|


-Repeat above pattern

Chorus:


    F
E--------------------------|  x 2
B--8--6----5--5--5---5--6--|
G--5--5----5--7--5---5--5--|
D--7--7—---7--7--7---7--7--|
A-(8)----------------------|
E--------------------------|


   Em
E--------------------------|  x 2
B--7-----------------------|
G--4-----------------------|
D--5-----------------------|
A--7-----------------------|
E--------------------------|

    F
E--------------------------|  x 2
B--8--6----5--5--5---5--6--|
G--5--5----5--7--5---5--5--|
D--7--7—---7--7--7---7--7--|
A-(8)----------------------|
E--------------------------|


   Gmaj7
E--------------------------|
B--7-----------------------|
G--7-----------------------|
D--9-----------------------|
A--10----------------------|
E--------------------------|

   Gmaj7
E--------------------------|
B--7-----------------------|
G--7-----------------------|
D--9-----------------------|
A--10----------------------|
E-(7)----------------------|

E--------------------------|
B--------------------------|
G------0-------------------|
D----0--------3------------|
A-----------3--------------|
E--0------3----------------|


-Play intro again

Verse 2:

Chorus 2:

Solo rhthym, pt.1:

E--------5-----------5-----|--------0-----------0-----|
B--------5-----------5-----|--------0-----------0-----|
G--------5-----------5-----|--------0-----------0-----|
D------7-----------7-------|------2-----------2-------|
A----7-----------7---------|----2-----------2---------|
E--5-----------5-----------|--0-----------0-----------|

Solo rhythm, pt.2:

-Chorus chords

Bridge:

-Intro chords, followed by:

E---------------|  x 4
B---------------|
G---------------|
D------6--------|
A----7----------|
E--4------------|


Outro:

- Repeat part 2 of chorus to fade.

Structure:

Intro - Verse 1 - Chorus - Interlude/Intro - Verse 2 - Chorus - Solo (Verse & Chorus) - 
- Chorus - Chorus - Outro

Fill 1: (straight after "her love is a rose dead and dying" and "all full of wine the 
before her")

   Em
     ..... let ring
E--------3-----------------|  x 2
B--1-3/5---3-1-1-3---------|
G--------------------------|
D--------------------------|
A--------------------------|
E--------------------------|
            
Submit corrections

comments powered by Disqus
↑ Back to top | Jeff Buckley Tabs for Forget Her. Lyrics for acoustic guitar and electric guitar. Tablatures and chords are parodies/interpretations of the original songs. You may use it for private study, scholarship, research or language learning purposes only