» » »

Dream Brother Tabs (ver.2)

Artists:  A B C D E F G H I J K L M N O P Q R S T U V W X Y Z # 

Dream Brother Tabs (ver.2)

Jeff Buckley
Rating:
4/5 (5 votes)

Hard to play? Try these video lessons and learn fast.
                |----------------------------------------------------------------------|
|Song: Dream Brother                                                   |
|Artist: Jeff Buckley                                                  |
|                                                                      |
|Submitted by: FretPlay                                                |
|----------------------------------------------------------------------|

Intro
e|--------------------------------------------|
B|-4---4--3---3---3--1---1--0--1--3---3-------|
G|---0------0---0------0------------0---------| 
D|--------------------------------------------|
A|--------------------------------------------|
E|--------------------------------------------|

e|------------------------------------1-------|
B|-4---4--3---3---3--1---1--0--1--3-----------|
G|---0------0---0------0------------0---------| 
D|--------------------------------------------|
A|--------------------------------------------|
E|--------------------------------------------|

e|------------------------------------1-------|
B|-4---4--3---3---3--1---1--0--1--3-----------|
G|---0------0---0------0------------0---------| 
D|--------------------------------------------|
A|--------------------------------------------|
E|--------------------------------------------|

e|----------------------------------1-3-------|
B|-4---4--3---3---3--1---1--0--1--3-----------|
G|---0------0---0------0----------------------| 
D|--------------------------------------------|
A|--------------------------------------------| 
E|--------------------------------------------| 



e|--3---3---2---3----------1---3-----|
B|--3---4---1---3----------1---3-----|
G|--0---0---2---3--x2------0---0-----|
D|--0---0---0---1----------3---0-----|
A|--1---3------------------3---x-----|
E|-------------------------1---3-----|

e|--3---5---1---3-------7---5---1---3---|
B|--4---6---1---3-------8---6---1---3---|
G|--3---5---0---0-------9---5---0---0---|
D|--5---7---3---0-------10--7---3---0---|
A|--3---8---3---x-------x---8---3---x---|
E|----------1---3-------8-------1---3---|

e|--6---3---5---6----------1---3-----|
B|--6---4---7---8----------1---3-----|
G|--7---5---5---7--x2------0---0-----|
D|--8---5---7---8----------3---0-----|
A|--8---3---5---6----------3---x-----|
E|--6----------------------1---3-----|

e|--3--3-------------(3)--3--3---1---3--|
B|--4--3--1---1-0-1-3-----3--4---1---3--|
G|--0--0----0-------------0--0---0---0--|
D|--0--0------------------0--0---3---0--|
A|--3--x------------------1--3---3---x--|
E|--x--3-------------(3)---------1---3--|
            
Hard to play? Try these video lessons and learn fast. | Correct




comments powered by Disqus
↑ Back to top | Tablatures and chords are parodies/interpretations of the original songs. You may use it for private study, scholarship, research or language learning purposes only