>
 >
Bad Scene, Everyone's Fault 1

Bad Scene, Everyone's Fault 1 Guitar Tabs

Jawbreaker - Bad Scene, Everyone's Fault 1 chords, tabs, tablatures, lyrics

Guitar lessons | Add/correct | Request | Top 50 tabs Artists:  A B C D E F G H I J K L M N O P Q R S T U V W X Y Z 0-9

Bad Scene, Everyone's Fault 1 Guitar Tabs – Jawbreaker

CD, Sheet music, Poster

Do you like Bad Scene, Everyone's Fault 1? Share with your friends now
TabsTabs v2
Jawbreaker
Bad Scene, Everyone's Fault
Dear You

Standard Tuning- EADGBe
Distortion

Riff A

e|-------------------------------------------------------------------------|
B|-------------------------------------------------------------------------|
G|----7-77-777----------7-77-777-------------------------------------------|
D|----7-77-777-7-77-777-7-77-777-5-55-555----------------------------------|
A|----5-55-555-7-77-777-5-55-555-5-55-555----------------------------------|
E|-3~----------5-55-555----------3-33-333----------------------------------|


Riff B

e|-------------------------------------------------------------------------|
B|-------------------------------------------------------------------------|
G|7777----7777----7777-----------------------------------------------------|
D|77777777777755557777777755555555-----------------------------------------|
A|55557777555555555555777755555555-----------------------------------------|
E|----5555----3333----555533333333-----------------------------------------|
pm.. ... ... ... ... ... ... . . .

Riff C

e|-------------------------------------------------------------------------|
B|-------------------------------------------------------------------------|
G|----------------7-77-----------------------------------------------------|
D|77-99-5-55-5555-7-77-777-5-55-5555-77-99-5-55-5555-----------------------|
A|77-99-5-55-5555-5-55-777-5-55-5555-77-99-5-55-5555-----------------------|
E|55-77-3-33-3333------555-3-33-3333-55-77-3-33-3333-----------------------|

Riff D

e|-------------------------------------------------------------------------|
B|-------------------------------------------------------------------------|
G|7----7----7----7777----7777----7777------------7777----7777---7777-------|
D|7-77-7-77-7-77-77777777777755557777777755555555777777777777555577777777--|
A|5-77-5-77-5-77-55557777555555555555777755555555555577775555555555557777--|
E|--55---55---55-----5555----3333----555533333333----5555----3333----5555--|

e|---------------------------|
B|---------------------------|
G|---------------------------|
D|55555555-------------------|
A|55555555-------------------|
E|33333333-------------------|

Riff E

e|-------------------------------------------------------------------------|
B|-------------------------------------------------------------------------|
G|7777999977771212121277779999121212121212121277779999121212127777---------|
D|77779999777712121212777799991212121212121212777799991212121277777777-5---|
A|55557777555510101010555577771010101010101010555577771010101055557777-5---|
E|----------------------------------------------------------------5555-3---|

ORDER:

Riff A x2
Riff B x2
Riff A x1
Riff B x2
Riff C x1
Riff D x1
Riff A x2
Riff B x2
Riff B x1 (No Palm Mute!)
Riff B x1
Riff C x1
Riff D x1
Riff E x1





Comments


Popular Jawbreaker tabs & chords
Big Bass Tabs
The Boat Dreams From The Hill Bass Tabs
Basillica Tabs
Chemistry Tabs
Do You Still Hate Me? Tabs
Housesitter Tabs
In Sadding Around 1 Tabs
Sea Foam Green Tabs
Basilica Ukulele
Indictment Ukulele


Song lyrics



↑ Back to top | Tablatures and chords are parodies/interpretations of the original songs. You may use it for private study, scholarship, research or language learning purposes only
© 2014 AZChords.com Contact us | Privacy policy | DMCA | Add/correct tabs | Request tabs | Top 50 tabs