» » »

Jawbreaker, Bad Scene Everyones Fault Tabs (ver.1)

Artists:  A B C D E F G H I J K L M N O P Q R S T U V W X Y Z # 

Bad Scene Everyones Fault Tabs (ver.1)

Jawbreaker Tabs
 Rating:
4/5 (4 votes)
Bad Scene Everyones Fault lessons Tabs too difficult? Try these video lessons and learn fast
1
                Jawbreaker
Dear You

Drop D Tuning - DADGBE
Distortion

I've revised by tab after figuring out the intro riff.

This is it:

INTRO

e|-------------------------------------------------------------------------|
B|-------------------------------------------------------------------------|
G|-------------------------------------------------------------------------|
D|----0-4-0-4h5p4-77---5-4-0-4-0-4h5p4-5-55-4-2--(x2)----------------------|
A|-------------------0-----------------------------------------------------|
D|(5~)---------------------------------------------------------------------|

These chords are the chords played in the intro.
e|-----------------------------------------------------------------------|
B|-----------------------------------------------------------------------|
G|-7-77-777-------------7-77-777-----------------------------------------|
D|-7-77-777-7-77-7777-0-7-77-777-5-55-5555-0-(x2)------------------------|
A|-5-55-555-7-77-7777-0-5-55-555-5-55-5555-0-----------------------------|
D|----------7-77-7777-0----------5-55-5555-0-----------------------------|

VERSE
Palm Mute (Listen to song for palm muting patterns)

e|-------------------------------------------------------------------------|
B|-------------------------------------------------------------------------|
G|7777----7777----7777-----------------------------------------------------|
D|77777777777755557777777755555555---(x2)----------------------------------|
A|55557777555555555555777755555555-----------------------------------------|
D|----7777----5555----777755555555-----------------------------------------|

 I went to a party last night.
 What sick things I saw!
 Makeout sessions and bicycle messengers,
 Punks and art school dropouts.

e|-------------------------------------------------------------------------|
B|-------------------------------------------------------------------------|
G|-------------------------------------------------------------------------|
D|----0-4-0-4h5p4-77---5-4-0-4-0-4h5p4-5-55-4-2--(x2)----------------------|
A|-------------------0-----------------------------------------------------|
D|(5~)---------------------------------------------------------------------|
 
Chords
e|-------------------------------------------------------------------------|
B|-------------------------------------------------------------------------|
G|---7-77-777-------------7-77-777-----------------------------------------|
D|---7-77-777-7-77-7777-0-7-77-777-5-55-5555-0-----------------------------|
A|---5-55-555-7-77-7777-0-5-55-555-5-55-5555-0-----------------------------|
D|5~----------7-77-7777-0----------5-55-5555-0-----------------------------|

e|-------------------------------------------------------------------------|
B|-------------------------------------------------------------------------|
G|7777----7777----7777-----------------------------------------------------|
D|77777777777755557777777755555555---(x2)----------------------------------|
A|55557777555555555555777755555555-----------------------------------------|
D|----7777----5555----777755555555-----------------------------------------|

 I ran into this guy I knew
 I hadn't seen in years.
 We went into the neon kitchen
 And stole a couple of beers.

e|-------------------------------------------------------------------------|
B|-------------------------------------------------------------------------|
G|---------------77--------------------------------------------------------|
D|77-99-5-55-555-77-77-5-55-555-77-99-5-55-555-----------------------------|
A|77-99-5-55-555-55-77-5-55-555-77-99-5-55-555-----------------------------|
D|77-99-5-55-555----77-5-55-555-77-99-5-55-555-----------------------------|

 He said his girl had dumped him.
 But was there with another guy.
 He said that he still liked her.

CHORUS

e|-------------------------------------------------------------------------|
B|-------------------------------------------------------------------------|
G|7---------7----7----7----------------------------------------------------|
D|7-77------7-77-7-55-7-77-55-55-------------------------------------------|
A|5-77-(x3)-5-77-5-55-5-77-55-55-(x2)--------------------------------------|
D|--77--------77---55---77-55-55-------------------------------------------|

 All I could say was
 All I could say was
 All I could say was
"Why, oh why, oh why, oh why?
 Why is it always like this?
 Either you're too mean or you're too nice."
 He said, "I even cooked her breakfast."

BRIDGE

e|-------------------------------------------------------------------------|
B|-------------------------------------------------------------------------|
G|6-777-6-777-6-777-6-777-6-777-6-777-7-77777777---------------------------|
D|7-777-7-777-7-777-7-777-7-777-7-777-7-55555555-(x2)----------------------|
A|-------------------------------------------------------------------------|
D|-------------------------------------------------------------------------|

VERSE
Palm Mute (Listen to song for palm muting patterns)

e|-------------------------------------------------------------------------|
B|-------------------------------------------------------------------------|
G|7777----7777----7777-----------------------------------------------------|
D|77777777777755557777777755555555---(x4)----------------------------------|
A|55557777555555555555777755555555-----------------------------------------|
D|----7777----5555----777755555555-----------------------------------------|

 So we went into the living room.
 Someone was blasting Zeppelin.
 It sounded good, I felt ashamed.
 I knew every drum fill.
 Anyway, there she sat,
 Totally kissing this guy.
 They looked good, I mean like in love.
 Then I remembered my friend.

e|-------------------------------------------------------------------------|
B|-------------------------------------------------------------------------|
G|---------------77--------------------------------------------------------|
D|77-99-5-55-555-77-77-5-55-555-77-99-5-55-555-----------------------------|
A|77-99-5-55-555-55-77-5-55-555-77-99-5-55-555-----------------------------|
D|77-99-5-55-555----77-5-55-555-77-99-5-55-555-----------------------------|

 He said, "How could you do this?
 You said that you needed your space.
 He's wearing the shirt that I gave you."

CHORUS

e|-------------------------------------------------------------------------|
B|-------------------------------------------------------------------------|
G|----------7----7----7----------------------------------------------------|
D|0-77------7-77-7-55-7-77-55-55-------------------------------------------|
A|0-77-(x3)-5-77-5-55-5-77-55-55-(x2)--------------------------------------|
D|0-77--------77---55---77-55-55-------------------------------------------|

 Then she said
 Then she said
 Then she said
"Why, oh why, oh why, oh why?
 Why are you always like this?
 If I'm having fun then it's breaking your heart.
 Besides, you said I could have it."


OUTRO

e|-------------------------------------------------------------------------|
B|-------------------------------------------------------------------------|
G|7-77-9-99-7-77-12-1212-7-77-9-99-12-1212-12121212-7-77-9-99-7-77-12-1212-|
D|7-77-9-99-7-77-12-1212-7-77-9-99-12-1212-12121212-7-77-9-99-7-77-12-1212-|
A|5-55-7-77-5-55-10-1010-5-55-7-77-10-1010-10101010-5-55-7-77-5-55-10-1010-|
D|-------------------------------------------------------------------------|

e|----------------------|
B|----------------------|
G|7---------------------| Then the cops showed up.
D|7-77-55---------------|
A|5-77-55---------------|
D|--77-55---------------|

THE END.
PLEASE RATE.
            
Submit corrections

comments powered by Disqus
↑ Back to top | Jawbreaker Tabs for Bad Scene Everyones Fault. Lyrics for acoustic guitar and electric guitar. 1 Tablatures and chords are parodies/interpretations of the original songs. You may use it for private study, scholarship, research or language learning purposes only