>
 >
Young Hearts Spark Fire

Young Hearts Spark Fire Guitar Tabs

Japandroids - Young Hearts Spark Fire chords, tabs, tablatures, lyrics

Guitar lessons | Add/correct | Request | Top 50 tabs Artists:  A B C D E F G H I J K L M N O P Q R S T U V W X Y Z 0-9

Young Hearts Spark Fire Guitar Tabs – Japandroids

CD, Sheet music, Poster

Do you like Young Hearts Spark Fire? Share with your friends now
TabsTabs v2
Band: JPNDRDS

VANCOUVER!


Tuning: DROP D (DADGBe)

=======================================================================

INTRO MOTIF:


e|-5-5-|--5---5-------0-0-|-0---0----0-|-----0------0-0--|
B|-8-8-|--8---7-------8-8-|-8---8----5-|-----7------8-8--|
G|-7-7-|o-7---7-------7-7-|-7---7----7-|-----7------7-7-o|
D|-5-5-|o-5---5-------0-0-|-x---x----0-|-----0------0-0-o|
A|-5-5-|--5---5-------0-0-|-7---7----0-|-----0------0-0--|
D|-5-5-|--5---5-------0-0-|-7---7----0-|-----0------0-0--|


VERSE:

2 chords that vary with strumming:

    chord 1            chord 2
e|--5-----5------------0-----0---|
B|--8-----7------------5-----7---|
G|--7-----7------------7-----7---|
D|--5-and-5------------0-and-0---|
A|--5-----5------------0-----0---|
D|--5-----5------------0-----0---|


PRE-CHORUS ("You can keep tomorrow..."):

* The same as the intro motif.


CHORUS ("Woah we used to dream!"):

e|--------------|------|------------------|--------------|
B|-15-----------|------|-19-19---19-19-19-|-19-----------|
G|-14-----------|------|-19-19---19-19-19-|-19-----------|
D|--x---strum...|..----|-17-17---17-17-17-|-0---strum....|
A|-14-----------|------|-17-17---17-17-17-|-0------------|
D|-14-----------|------|-17-17---17-17-17-|-0------------|

After that play this chord (with its variation):

e|-10-----10--|-----------|-----------|------------|
B|-10-----10--|-----------|-7---------|-7----------|
G|-11-----12--|-----------|-7---------|-7----------|
D|-12-and-12--|-strum...--|-5-strum...|-0-strum...-|
A|-10-----10--|-----------|-5---------|-0----------|
D|-10-----10--|-----------|-5---------|-0----------|


POST-CHORUS ("I don't wanna worry about dyin'"):

e|-0-0---------|----------------------|
B|-5-5---------|----------------------|
G|-7-6---------|--7---------7---------|
D|-7-7---------|--5---------0---------|
A|-0-0---------|--5---------0---------|
D|-------------|--5---------0---------|


Burn that motha fucka down!





...No, seriously

************************************

| /   slide up
| \   slide down
| h   hammer-on
| p   pull-off
| ~   vibrato
| +   harmonic
| x   Mute note
| b   Bend
| pb  Pre-bend
| br  Bend release
| pbr Pre-bend release
| brb Bend release bend

************************************





Comments


Popular Japandroids tabs & chords
Continuous Thunder Chords
Crazy Forever Tabs
Darkness On The Edge Of Gastown Tabs
Heart Sweats Tabs
Sexual Aerosol Tabs
Sovereignty Tabs
Young Hearts Spark Fire 1 Tabs
Young Hearts Spark Fire Intro Tabs
Younger Us Tabs
Younger Us 1 Tabs


Song lyrics



↑ Back to top | Tablatures and chords are parodies/interpretations of the original songs. You may use it for private study, scholarship, research or language learning purposes only
© 2014 AZChords.com Contact us | Privacy policy | DMCA | Add/correct tabs | Request tabs | Top 50 tabs