» » »

Japandroids, Younger Us Tabs (ver.1)

Artists:  A B C D E F G H I J K L M N O P Q R S T U V W X Y Z # 

Younger Us Tabs (ver.1)

Japandroids Tabs
 Rating:
4/5 (4 votes)
Younger Us lessons Tabs too difficult? Try these video lessons and learn fast
                -------------------------------------------------------------------------------
-------------------------------------------------------------------------------

Canadian White Stripes; just guitar and drums. Solo might not be a 100% but I
had trouble figuring out the exact thing he's playing. You can get a good idea 
of what the strumming patterns are here:

Tuning: Standard

Intro/Verse:
e|----------------------| x4
B|----------------------|
G|--13--13--------------|
D|--14--14--11--16--14--|
A|--14--12--11--0---0---|
E|--12--12--9-----------|

Chorus:
e|--0-----------------| x4
B|--0-----------------|
G|--1------6--11--9---|
D|--2--14--6--9---9---|
A|--2--14--4--0---0---|
E|--0--12-------------|

Bridge:
e|------------0------------|
B|------------0------------|
G|--3--10--8--1--6--8--10--|
D|--4--11--9--2--7--9--11--|
A|--4--11--9--2--7--9--11--|
E|--2--9---7--0--5--7--9---|

Chorus:
e|--0-----------------| x4
B|--0-----------------|
G|--1------6----------|
D|--2--14--6--16--14--|
A|--2--14--4--0---0---|
E|--0--12-------------|

Bridge:
e|------------0------------|
B|------------0------------|
G|--3--10--8--1--6--8--10--|
D|--4--11--9--2--7--9--11--|
A|--4--11--9--2--7--9--11--|
E|--2--9---7--0--5--7--9---|

Interlude/Pre-Solo:
e|----------------------| x4
B|----------------------|
G|----------------------|
D|--14--14--11--16--14--|
A|--14--12--11--0---0---|
E|--12--12--9-----------|

Solo: Tremolo Picking throughout
e|----------------------------------------|
B|----------------------------------------|
G|--16--16--18----------------------------|
D|--14--13--16--14--13--16--14--18--14----|
A|--------------12--11--------------------|
E|----------------------------------------|

Chorus: x4

Bridge

Chorus: x4

Outro:
e|------------0--------0---|
B|------------0--------0---|
G|--3--10--8--1--6--8--1---|
D|--4--11--9--2--7--9--2---|
A|--4--11--9--2--7--9--2---|
E|--2--9---7--0--5--7--0---|



Enjoy.
            
Submit corrections

comments powered by Disqus
↑ Back to top | Japandroids Tabs for Younger Us. Lyrics for acoustic guitar and electric guitar. Tablatures and chords are parodies/interpretations of the original songs. You may use it for private study, scholarship, research or language learning purposes only