» » »

Janes Addiction, Whores Tabs (ver.1)

Artists:  A B C D E F G H I J K L M N O P Q R S T U V W X Y Z # 

Whores Tabs (ver.1)

Janes Addiction Tabs
 Rating:
4/5 (4 votes)
Whores lessons Tabs too difficult? Try these video lessons and learn fast
1
                -------------------------------------------------------------------------------
                             WHORES - Jane's Addiction
-------------------------------------------------------------------------------


Tuning: Standard

This is a general outline of the song, except the solos (They are different
in every version I have heard). For the solos, just screw around in  
B pentatonic. 

Intro/Verse:

e|--------------------------------------------------|
B|--------------------------------------------------|
G|--------------7h9-9b11-7~-------------------------|
D|-7/9-9-9--7h9-------------7/9-9-9-7--9-7----------|
A|-7/9-9-9------------------7/9-9-9--------9-8-7-5~-|
E|-5/7-7-7------------------5/7-7-7-----------------|

Bridge:

e|---------------------------|
B|-10~----10~----10~----10~--|
G|-9b11~--9b11~--9b11~--9b11~|
D|---------------------------|
A|---------------------------|
E|---------------------------|

B Pentatonic Scale (including Blues Notes):

e|----------------------------7-10-|
B|-----------------------7-10------|
G|----------------7-9-10-----------|
D|------------7-9------------------|
A|------7-8-9----------------------|
E|-7-10----------------------------|

| /  slide up
| \  slide down
| h  hammer-on
| p  pull-off
| ~  vibrato
| +  harmonic
| x  Mute note
===============================================================================
            
Submit corrections

comments powered by Disqus
↑ Back to top | Janes Addiction Tabs for Whores. Lyrics for acoustic guitar and electric guitar. 1 Tablatures and chords are parodies/interpretations of the original songs. You may use it for private study, scholarship, research or language learning purposes only